Oops, an error
Loading. Please wait.

Shelter Tab

version 1
version 1

Whole song

Interactive

8,594 views 12 this week
no commentswrite comment
1 2 3 4 5
accurate
x 5
add to favorites
launch autoscroll
font size
0
reset
how to read this tab
guitar tuner
Autoscroll
slow
fast
+/-
esc
set tempo
stop
Help us to improve Ultimate-Guitar.com Take our survey!
×
Okay, so here it is... I first listened to this song yesterday and today I thought 
"Hey, this sounds pretty easy..", s
o I picked up my guitar and started playing.

There might be some mistakes, but it definitely sounds something like this.
Listen to the song to get the rhythm right.

Intro:
|--------------------------------------|
|--------------------------------------|
|--------------------------------------|
|--------------------------------------|
|------8-7-8-9-8--------3-4--------4-3-|
|-6-6--------------2-2--------4-4------|

----------------------------------------|
----------------------------------------|
----------------------------------------|
----------------------------------6-4---|
-----8-7-8-9-8--------3-4-------------9-|
-6-6--------------2-2----------4--------| Play that 3 times

Then..
|--------------------------------------|
|--------------------------------------|
|--------------------------------------|
|--------------------------------------|
|------8-7-8-9-8--------3-4--------4-3-|
|-6-6--------------2-2--------4-4------|

---------------------------------------------|
---------------------------------------------|
---------------------------------------------|
-----------------------------------------6-8-|
-----8-7-8-9-8--------3-4----------3-4---6-8-|
-6-6--------------2-2----------4-4-------4-6-|

Verse:
|----------------------|
|----------------------|
|----------------------|
|-8-8-------4-4----6-6-|
|-8-8-------4-4----6-6-|
|-6-6-------2-2----4-4-| x3

Verse ending #1:
|------------|
|------------|
|------------|
|-4-4----6-6-|
|-4-4----6-6-|
|-2-2----4-4-|

Now you play the entire intro again.
After that you play the verse again, but instead of verse ending #1, you go:

|---------------------------------|
|---------------------------------|
|---------------------------------|
|-4-4-4-4-4-4-4-4--6-6-6-6-6-6-6-6|
|-4-4-4-4-4-4-4-4--6-6-6-6-6-6-6-6|
|-2-2-2-2-2-2-2-2--4-4-4-4-4-4-4-4|

Chorus goes something like this:
|----------------------------------|
|----------------------------------|
|----------------------------------|
|-8-8-8-8-8-8-8-8--4-4-4-4-4-4-4-4-|
|-8-8-8-8-8-8-8-8--4-4-4-4-4-4-4-4-|
|-6-6-6-6-6-6-6-6--2-2-2-2-2-2-2-2-|

------------------------------------------|
------------------------------------------|
------------------------------------------|
-11-11-11-11-11-11-11-11--6-6-6-6-6-6-6-6-|
-11-11-11-11-11-11-11-11--6-6-6-6-6-6-6-6-|
--9--9--9--9--9--9--9--9--4-4-4-4-4-4-4-4-| Listen to the song to see how many 
times you play the chorus.


And that's pretty much the entire song.
I haven't quite figured out the solo yet, but if I do I'll put it up here.

HOPE YOU'RE ABLE TO UNDERSTAND HOW IT'S PLAYED
and enjoy!

X

Sofia
comments
print report bad tab
I want to post or [tab]
guest
You may want to rate the tab now too:
select rating
Please do not post tabs as comments. Select "correction" instead!