Oops, an error
Loading. Please wait.

Yappari Megumi Ga Suki Tab

version 1
version 1

Whole song

Interactive

10,898 views 3 this week
no commentswrite comment
1 2 3 4 5
please rate
add to favorites
launch autoscroll
font size
0
reset
how to read this tab
guitar tuner
Autoscroll
slow
fast
+/-
esc
set tempo
stop
Help us to improve Ultimate-Guitar.com Take our survey!
×
Author
Difficulty
novice
Miyavi - Yappari Megumi Ga Suki

Tabbed by : Keyser
Date :  21 / 03 / 06

Tuning - C#,F#,B,E,G#,C#

Palm Mute or Left Hand Mute : X
Slide Down :
Slide Up : /
Tremolo : ~
Harmonics : ()
Hammer On : h
Pull Off : p
Pick towards you : ^ under the actual tab lines
Bend up : ^ within the tab itself
Re-pick during bend : r after ^

Intro / Main Riff :

C#|--------------------              ----------------------|
G#|--9-----------------              --9-------------------|
E |-------8----11p9----              -------8----11-----9--|
B |--7----9----11------      or      --7----9----11----11--|
F#|--------------------              ----------------------|
C#|--------------------              ----------------------|

then

C#|--------------------12^--12p10--------------------------|
G#|--------------------------------12--10------10^--12-----|
E |---96----8----9------------------------12---------------|
B |--117----9----9-----------------------------------------|
F#|--------------------------------------------------------|
C#|--------------------------------------------------------|

C#|---------------------------------------------------------------/15-15-13~-|
G#|--9-9--xx----------x--------xx-xx-xx---9-9--xx----------x-----------------|
E |--9-9--xx---8h9p8--x--11p9--xx-xx-xx---9-9--xx---8h9p8--x--11p9-----------|
B |--7-7--xx---9------x--11----xx-xx-xx---7-7--xx---9------x--11-------------|
F#|--------------------------------------------------------------------------|
C#|--------------------------------------------------------------------------|

C#|-------------------------------/15-15^--13--------------------------------|
G#|--9-9--xx----------x--------x--------------15~~--xx--9-9--xx--------------|
E |--9-9--xx---8h9p8--x--11p9--x--------------------xx--9-9--xx---8----9-----|
B |--7-7--xx---9------x--11----x--------------------xx--7-7--xx---9----9-----|
F#|--------------------------------------------------------------------------|
C#|--------------------------------------------------------------------------|

Verse :

C#|-------xx-xx-------xx-xx-------xx-xx-------xx----------|
G#|-------xx-xx-------xx-xx--9-9--xx-xx--7-7--xx--77-7----|
E |--9-9--xx-xx--8-8--xx-xx--8-8--xx-xx--9-9--xx--99-8----|
B |--7-7--xx-xx--9-9--xx-xx-------xx-xx-------xx----------|   (x2)
F#|-------------------------------------------------------|
C#|-------------------------------------------------------|

Break :

C#|----------xxx-------x----------11--11--------------|
G#|----------xxx-------x--9--9-9--9---9---9---9-7-8---|
E |--9--9-9--xxx--8-8--x--9--9-9--9---9---9---9-7-8---|
B |--7--7-7--xxx--9-9--x--9--9-9--9---9---9---9-7-8---|
F#|---------------------------------------------------|
C#|---------------------------------------------------|

C#|-------xx-xx-xx-----xx-xx-xx-------xx-xx-xx-------xx-xx-xx-------xx-xx-xx-|
G#|-------xx-xx-xx-----xx-xx-xx-------xx-xx-xx-------xx-xx-xx-------xx-xx-xx-|
E |--9-9--xx-xx-xx--8--xx-xx-xx--9-9--xx-xx-xx--8-8--xx-xx-xx--9-9--xx-xx-xx-|
B |--7-7--xx-xx-xx--9--xx-xx-xx--7-7--xx-xx-xx--9-9--xx-xx-xx--7-7--xx-xx-xx-|
F#|--------------------------------------------------------------------------|
C#|--------------------------------------------------------------------------|

C#|-------xx-xx-xx--------------------------------------------------|
G#|-------xx-xx-xx--------------8-8-8-10--8--10--10--10--10---10----|
E |--8-8--xx-xx-xx--9-9-9999999-9-9-9-9---9--9---9---9---9----9-----|
B |--9-9--xx-xx-xx--7-7-7777777-7-7-7-7---7--7---7---7---7----7-----|
F#|-----------------------------------------------------------------|
C#|-----------------------------------------------------------------|

Ending :

C#|--------------------------/15--15--17^-------------------------------|
G#|----------xx-----------------------------xx----------x---------------|
E |--11--11--xx--10--10--11-----------------xx--11--11--x--10--10--11---|
B |--9---9---xx--11--11--11-----------------xx--9---9---x--11--11--11---|
F#|---------------------------------------------------------------------|
C#|---------------------------------------------------------------------|

C#|--/15^p13---------------------------------------------|
G#|-----------14p12-------------------xx-----------------|
E |------------------13p11----11--11--xx---10--10--11----|
B |---------------------------9---9---xx---11--11--11----|
F#|------------------------------------------------------|
C#|------------------------------------------------------|

C#|-----------------|
G#|-----------------|
E |--9----8----9----|
B |--7----9----9----|
F#|-----------------|
C#|-----------------|

Thank you, and goodnight...
Suggest correction
Give kudos to tab author, rate the tab!
1 2 3 4 5
comments
print report bad tab
guest
You may want to rate the tab now too:
select rating
Please do not post tabs as comments. Select "correction" instead!