Oops, an error
Loading. Please wait.

Woh Aur Main tab

by Mizraab
594 views 1 this week
no commentswrite comment
1 2 3 4 5
3 more votes to show rating
add to favorites
×
Save as Personal and add changes to this tab that will be seen only by you. Learn more ›
×
You can save this tab as Personal to edit and correct it or add notes. All changes will be seen only by you. Learn more »
launch autoscroll
font size
0
reset
how to read this tab
guitar tuner
edit
Autoscroll
slow
fast
+/-
esc
set tempo
stop
Author
Difficulty
----------------------------------------------------------------------------
                          woh aur main - mizraab
----------------------------------------------------------------------------
Tabbed by:ahsen khan
Email:rocking_lead_guitar@hotmail.com

Tuning:standard (EADGBe)

okay this is my first tab from mizraab its a really nice song with some nice licks from 
anwar well i love the song here it is:

Intro:

e|-------------------------------------------------------------------------|
B|---2------2--------------------------------------------------------------|
G|--2-2----2-2-------------------------------------------------------------|
D|-----0------0------------------------------------------------------------|
A|-2------0----------------------------------------------------------------|
E|-------------------------------------------------------------------------|

repeat this a couple of times

Verse:

G                C
woh meri yeh zindagi ka hasil hia
G                C
saans saans zindagi mein shamil hai

(keep repeating the same chord loop till the end of the verse)

Bridge:

D              C        G
woh hoooohooo mera dil hai
D              C        G
woh hoohoooo meri jaan hai

(keep repeating the same chord loop till the end of the bridge)

then develop to chorus using these chords:

C F and *Gmaj *(okay i am not good at naming chords but its the
                one with 355333 Gmaj*)

Chorus:

e|-------------------------------------------------------------------------|
B|-------------------------------------------------------------------------|
G|-------------------------------------------------------------------------|
D|-99-777777----55555555---------------------------------------------------|
A|-99-777777----55555555---------------------------------------------------|
E|-77-555555----33333333---------------------------------------------------|

repeat this order four times play it with rythm after playing the song

now after the chorus he has a break in which he lets each chord ring
after strumming it once with the rythm the the small solo comes
after that ... repeat the whole thing again and then another solo comes then  he just 
the chorus a couple of times and ends the song

pattern:

intro x4
verse x4
bridge x3
build up  x 1
chorus x4 or 6
solo (not tabbed)
verse x4
bridge x3
build up x1
chorus x4 or 6
solo (not tabbed)
chorus (a few times)
end

okay well its pretty simple i am done and the lead parts are almost done i am done 
them and the solos just finalizing them so i will submit them later anyways enjoy this tab 
pretty accurate fun play have fun keep rocking peace..... :P

| /  slide up
| \  slide down
| h  hammer-on
| p  pull-off
| ~  vibrato
| +  harmonic
| x  Mute note
============================================================================

            
            
Suggest correction
Creating personal tab
Creating personal tab
You can edit any tab online and save it as your Personal.

You can edit, replace or remove any tab part or add personal notes – all changes will be seen only by you.

Personal tabs can be accessed anytime from any device, even offline.
Learn more »
Give kudos to tab author, rate the tab!
1 2 3 4 5
comments
print report bad tab
guest
You may want to rate the tab now too:
select rating
Wanna post a correction for this tab? Suggest correction