Oops, an error
Loading. Please wait.

Trinity Cross Bass Tab

1,169 views 3 this week
no commentswrite comment
1 2 3 4 5
please rate
add to favorites
launch autoscroll
font size
0
reset
guitar tuner
Autoscroll
slow
fast
+/-
esc
set tempo
stop
Help us to improve Ultimate-Guitar.com Take our survey!
×
Author
Difficulty
intermediate
                             Trinity Cross - Mizuki Nana
-------------------------------------------------------------------------------

Tuning: Standard EADG

Intro

G|------------------------------------------------------|
D|-------------------------------------------3-5-3-5----|
A|-----------------3-----3-----------------4------------|
E|-/14--5-5-5--3--1-1--33-3--5-5-5--3--1-1--------------|


G|------------------------------------------------------|
D|------------4-----6----------------------6\-----------|
A|-6-6-6--4--2-2--44-4--6-6-6-66--44--2-2-4-------------|
E|-------------------------------------2----------------|


Verse 1

G|------------------------------------------------------|
D|------------------------------------------------------|
A|-6x8--2x8--6x8--2x8-------4x8--1x4--5x4--6x6--6\------|
E|---------------------4x8--------------------6---------|


G|------------------------------------------------------|
D|------------------------------------8-8-8-------------|
A|-2x4--4x4--1x4--6x4--2x4-----------------8------------|
E|--------------------------4x4--6x8--------6\----------|


Chorus 1

G|------------------------------------------------------|
D|------------------------------------------------------|
A|-4x4--6x4--3x4--------3--4x4--6x4--3x4--88--66--------|
E|----------------1-1-5---------------------------------|


G|------------------------------------------------------|
D|----------------------------1x4--3x3--3---------------|
A|-4x4--6x4--3x4---------1x4-----------3-3--------------|
E|----------------1-1-5-------------------1-1-----------|


G|----------------------------------------3-------------|
D|------------------------------------------1-3---------|
A|-4x8--6x8--3x8--8x6--6-6-4-4--4---4--1x4------1-3\----|
E|----------------------------4---4---------------------|


Post Chorus/Intro 1

G|------------------------------------------------------|
D|-------------------------------------------3-5-3-5----|
A|-----------------3-----3-----------------4------------|
E|-/14--5-5-5--3--1-1--33-3--5-5-5--3--1-1--------------|


G|------------------------------------------4---6\------|
D|------------4-----6-------------------3-5-------------|
A|-6-6-6--4--2-2--44-4--6-6-6-66--44--2-----------------|
E|------------------------------------------------------|


Verse 2

G|-------------------------3----------------------------|
D|----------4-3--------3-4------------------------------|
A|-6x8--2x5-----4--6x5--------2x8------6-----4x4--4\----|
E|---------------------------------4x5---4-4-----4------|


G|--------------------------------|
D|--------------------------------|
A|-1x4--5-5-5--6-6-8-6-9-8-6-6----|
E|---------6----------------------|


G|------------------------------------------------------|
D|--------------------------------------8-8-8-----------|
A|-2x4--4-4----------6x4--2x4----------------8----------|
E|----------4-4--6x4----------4x4--6x8--------6\--------|

Chorus 2

G|------------------------------------------------------|
D|------------------------------------------------------|
A|-4x4--6x4--3x4--------3--4x4--6x4--3x4--8x4-----------|
E|----------------1-1-5---------------------------------|


G|-------------------------------3------5x3-------------|
D|----------------------------1-1-1-3x5-----------------|
A|-4x4--6x4--3x4---------1x4----------------------------|
E|----------------1-1-5---------------------------------|


G|-----------------------------------------3------3-------------|
D|----------------------------------------1-3-------1-3---------|
A|-4x8--6x6------3x6-6-6--8x6--6-6-4-4--4-----1x4-------1-3\----|
E|----------6-6-----------------------4-------------------------|


Post Chorus/Intro 2

G|------------------------------------------------------|
D|-------------------------------------7-5-3-3-5--5-----|
A|------------------------------------------3-----------|
E|-/14--5-5-5--33--1-1-1--33-33--5-5-5------------------|


Solo

G|-----------------------------------------|
D|---------2-----------4----2--------------|
A|-----------5-5--7-7----4-----5-5--77-----|
E|-2-2p0-2----5-----------2-----5----------|


G|-----------------------------------------|
D|-----------------------------------------|
A|-----------5-5--7-7--9-9-9--7-7-5-5--7---|
E|-2-2p0-2-0--5--------------------5----0--|


-Vocal Break-


Bridge
                                        
G|--------------------------------------------------------|
D|----------------------------------------------8-8-8-----|
A|-----2-2--4-4--1-1--6--4--2---------------6-8------8----|
E|-/14---------------------------4---6--6x6-----------6\--|
                                        

Chorus 3

G|--------------------------------------10----------------|
D|-------------------------------------8--10-8-6----------|
A|-4----6----3----------4----6----3-----------------------|
E|----------------1---------------------------------------|


G|--------------------------------------------------------|
D|-------------------------------8--3x3-------------------|
A|-4x4--6x4--3-3-6-6-8x3-6----6-6-6-----------------------|
E|-------------------------6x4----------1/14\-------------|


G|------------------------------------------------------------------------|
D|------------------8-9-10x6--8-6----5-5-6-5-------------6----------------|
A|-4x5--4-5-6x5--10--------------8-8--------------4x5--8------6-----------|
E|-----4-------------------------------------6-6-----------4x5-4-4-6\-----|


Outro

G|-----------------------------------------2-----------|
D|-------------------------------------7-5---3-5-------|
A|------------------------------------------3----5-----|
E|-/14--5-5-5--3--1-1-1--33-03--5-5-5------------------|


G|---------------------------------------------------------------------|
D|------------1---1--3-3----5-5-5--5-33--1-1-1--33---------------------|
A|--------------1----------------------------------33--------/10x6-----|
E|-3-3p0-3--1-----------------------------------------3----------------|




************************************

| /   slide up
| \   slide down
| p   pull off
************************************
Suggest correction
Give kudos to tab author, rate the tab!
1 2 3 4 5
comments
print report bad tab
guest
You may want to rate the tab now too:
select rating
Wanna post a correction for this tab? Suggest correction