Oops, an error
Loading. Please wait.

Blood Stained Bass Tab

696 views 1 this week
no commentswrite comment
1 2 3 4 5
3 more votes to show rating
add to favorites
launch autoscroll
font size
0
reset
guitar tuner
Autoscroll
slow
fast
+/-
esc
set tempo
stop
Help us to improve Ultimate-Guitar.com Take our survey!
×
Artist: Mnemic
Album: Mechanical Spin Phenomena
Song: Blood Stained

Tuning: Standard 5-string - B, E, A, D, G

/  slide up           slide down
x  percussive mute  r  release bend
~  let ring         *  stop string
PM palm mute on . notes

Intro I (0:19)
G |----------------------------------------------------------------|
D |----------------------------------------------------------------|
A |----------------------------------------------------------------| x1
E |-------------------9----------\--------------------------------|
B |2---------------2---------------2---------------2---------------|

Intro II (0:37)
G |----------------------------------------------------------------|
D |----------------------------------------------------------------|
A |----------------------------------------------------------------|
E |--------------------------------0--0--0--0--0---2--2--2---------|
B |2--2--2--2--2---4--4--4--4--4---------------------------------22|
PM                                                               ..| x1
G |----------------------------------------------------------------|
D |----------------------------------------------------------------|
A |----------------------------------------------------------------|
E |----------------------------------------------------------------|
B |2--2--2--2--2---2--2--2--2--2-222--2--2--2--2---2--2--2--2--2-22|
PM                               ..                              ..

Chorus (0:54)
G |----------------------------------------------------------------|
D |----------------------------------------------------------------|
A |----------------------------------------------------------------|
E |--------------------------------000--0--0--0--0-222--2--2--2-222|
B |222--2--2--2--2-444--4--4--4--4---------------------------------|
  |                                                                | x2
G |----------------------------------------------------------------|
D |----------------------------------------------------------------|
A |----------------------------------------------------------------|
E |--------------------------------000--0--0--0--0-222--2--2--2--2-|
B |222--2--2--2--2-444--4--4--4--4---------------------------------|

Verse I (1:28)
G |----------------------------------------------------------------|
D |----------------------------------------------------------------|
A |----------------------------------------------------------------| x2
E |----------------------------------------------------------------|
B |--32-0--0--0--0-xx32-0--0--0--0-xx32-0--0--0--0-xx2-0--0--0--0--|

Bridge (1:46) (in a fast 6/8 tempo)
G |------------------------------------|
D |------------------------------------|
A |------------------------------------| x1
E |------------------------------------|
B |0222220222220222220222220222222*----|

Verse II (1:50) (back to 4/4)
G |----------------------------------------------------------------|
D |----------------------------------------------------------------|
A |----------------------------------------------------------------|
E |------------------------------3-------------------------------3-|
B |0-0-3r2-3r2-0-0-3r2-3r2-0-0-0---0-0-3r2-3r2-0-0-3r2-3r2-0-0-0---|
  |
G |--------------------------------------------------------------------|
D |--------------------------------------------------------------------|
A |--------------------------------------------------------------------|
E |------------------------------3-----------------2-3-----3-2---------|
B |0-0-3r2-3r2-0-0-3r2-3r2-0-0-0---0-0-3r2-3r2-0*------2-3-----3-2*----|
  |
G |----------------------------------------------------------------|
D |----------------------------------------------------------------|
A |----------------------------------------------------------------|
E |----2-3-4-3-----2-3-----3-2---------2-3-4-3---------------------|
B |2-3---------3-2-----2-3-----3-2-2-3---------3-2-22222*-2*-2*----|
PM                                                 ....
G |------------------------------------------------------------------------|
D |------------------------------------------------------------------------|
A |------------------------------------------------------------------------|
E |--------------------------------0--0--0--0--0---2--2--2--2*-------------|
B |2--2--2--2--2---4--4--4--4--4-------------------------------------------|

Verse I (2:20) x2

Prechorus (2:37)
G |----------------|
D |----------------|
A |----------------| x4
E |----------------|
B |--2--2--2--2--2-|

Chorus (2:46) x2

Postchorus (3:21)
G |----------------|    |------------------------------|    |---------------
D |----------------|    |------------------------------|    |---------------
A |----------------| x6 |------------------------------| x4 |-------------- 
E |----------------|    |------------------------------|    |---------------
B |002-02-02-02-02-|    |000~--000~--000~--00*---00*---|    |0-0-0-0-0*-----

Rest (3:51)

Interlude (3:59) (not too sure about this)
G |------------------------------------------------|
D |------------------------------------------------|
A |------------------------------------------------| x1
E |------------------------------------------------|
B |2/4-2222/42-342/42-2-*---2/4-2222/42-342/4|
  |
G |--------------------------------|    |------------|
D |--------------------------------|    |------------|
A |--------------------------------| x4 |------------| x1
E |----------------0-------2-------|    |------------|
B |2-------4-----------------------|    |00----00----|

Postchorus (4:24) JUST play middle section x4
Verse I (4:40) x2
Chorus (4:58) x2

Outro (5:32)
G |----------------------------------------------------------------|    
D |----------------------------------------------------------------|    
A |----------------------------------------------------------------| x4
E |----------------------------------0--0--0--0--0-----------------|   
B |--2--2--2--2--2---0--0--0--0--0-------------------0--0--0--0--0-|    
Suggest correction
Give kudos to tab author, rate the tab!
1 2 3 4 5
comments
print report bad tab
guest
You may want to rate the tab now too:
select rating
Wanna post a correction for this tab? Suggest correction