Oops, an error
Loading. Please wait.

Door 212 Tab

version 1
version 1

Whole song

Interactive

2,636 views 6 this week
3 commentsread comments
1 2 3 4 5
excellent!
x 7
add to favorites
launch autoscroll
font size
0
reset
how to read this tab
guitar tuner
Tab Pro tools
  • play this tab
  • loop segment
  • change instrument
  • show fretboard
  • metronome
Autoscroll
slow
fast
+/-
esc
set tempo
stop
Contributor
Difficulty
intermediate
----------------------------------------------------------------------------
                             Door 2.12 - Mnemic
----------------------------------------------------------------------------
Tabbed by: Bee-Ay
Email: Leviathan_ben@hotmail.com

Tuning: B-E-A-D-F#-b

Hey.. This is a song for a danish metal-band.
They have worked hard for their music in a while, and so i picked up a song.
P.S: Look at the tuneing, because its the way that they get their sound.


Intro, Guitar 1:
b |-----------------------------------------------------|
F#|-----------------------------------------------------|
D |-----------------------------------------------------|
A |--------------------------------7--------------------|
E |-7------10------12------3-------5-------2-------4----|
B |-5-------8------10------1---------------0-------2----|


Guitar 2:
b |-----------------------------------------------------|
F#|-----------------------------------------------------|
D |-----------------------------------------------------|
A |-----------------------/7-------/7------9------11----|
E |-7------10------12-----/8-7h8p7-/8------7-------9----|
B |-5-------8------10-----------------------------------|


Verse parts:
b |---------------------------------|
F#|---------------------------------|
D |*-------------------------------*|
A |*-------------------------------*|
E |-----------5---------------------|
B |--2--2-2-2---2-0-2--2-2-2-5-2-0--|


       PM|   PM|      PM|   PM|
b |-------------------------------|
F#|-------------------------------|
D |-------------------------------|
A |-------------------------------|
E |-4--------5-----4--------------|
B |-2--2-2-2---2-0-2--2-2-2-5-2-0-|


        PM|   PM|      PM|   PM|
b |---------------------------------|
F#|---------------------------------|
D |---------------------------------|
A |---------------------------------|
E |-4--------5-----4----------------|
B |-2--2-2-2---2-0-2--2-2-2-5-2-0-2-|



   PM--|       PM--|             PM---------|
b |--------------------------------------------------|
F#|--------------------------------------------------|
D |--------------------------------------------------|x2
A |--------------------------------------------8--8--|
E |-------7--7--------10--10--10---------------8--8--|
B |-0-0-0-------0-0-0-------------0-0-0--0-0-0-------|


    PM-------------------|
b |------------------------|
F#|------------------------|
D |------------------------|
A |------------------------|
E |------------------------|
B |-0-0-0--0-0-0--0-0-0--0-|




b |-------------------------------------------------|
F#|-------------------------------------------------|
D |-------------------------------------------------|
A |-10-10-10-10-10-10-10-10-10-10-10-10-10-10-10-10-|
E |--8--8--8--8--8--8--8--8--8--8--8--8--8--8--8--8-|
B |-------------------------------------------------|


b --------------------------------------------------|
F#--------------------------------------------------|
D --------------------------------------------------|
A --12-12-12-12-12-12-12-12-12-12-12-12-12-12-12-12-|
E --10-10-10-10-10-10-10-10-10-10-10-10-10-10-10-10-|
B --------------------------------------------------|


Pre-Chorus:
   PM|    PM|    PM  PM   PM|    PM|    PM  PM
b |-------------------------------------------------|
F#|-------------------------------------------------|
D |-------------------------------------------------| First & third time
A |-----2------2----6---5------2------2----3---5----|
E |-----2------2----6---5------2------2----3---5----|
B |-0-0-0--0-0-0--0-4-0-3--0-0-0--0-0-0--0-1-0-3----|


  PM|    PM|    PM  PM   PM|    PM|   PM  PM
b |------------------------------------------------|
F#|------------------------------------------------|
D |------------------------------------------------| Second time
A |-----2------2----6---5------2------2---3---5----|
E |-----2------2----6---5------2------2---3---5----|
B |-0-0-0--0-0-0--0-4-0-3--0-0-0--0-0-0-0-1-0-3----|


Chorus. Both guitars:
b |-----------------------------------------------------
F#|-----------------------------------------------------
D |*-9999999999999999-121212121212121212121212-14141414-
A |*-7777777777777777-101010101010101010101010-12121212-
E |--7777777777777777-101010101010101010101010-12121212-
B |--5555555555555555--8-8-8-8-8-8-8-8-8-8-8-8-10101010-


-----------------------------------------------------|
-----------------------------------------------------|
-5555555555555555-141414141414141414141414-16161616-*|
-3333333333333333-121212121212121212121212-14141414-*|
-3333333333333333-121212101212121212121212-14141414--|
-1111111111111111-101010101010101010101010-12121212--|



Break before 2nd verse:
Guitar 1:
b |-----|
F#|-----|
D |-----|
A |-----|
E |--4--|
B |--2--|


Guitar 2:
b |-------------------------------------------------------------|
F#|-------------------------------------------------------------|
D |-------------------------------------------------------------|
A |-------------------------------------------------------------|
E |----------5-----------------------------5--------------------|
B |-2--2-2-2---2-0-2--2-2-2-5-2-0-2--2-2-2---2-0-2--------5-2-0-|



And in the very end of the song:
b |-----|------------------|
F#|-----|------------------|
D |--6--|------------------|
A |--4--|------------------|
E |--4--|----------5-------|
B |--2--|----2-0-2---2-0-2-|


And this is it.. All the riff are there.
Its a hard/difficlut song to play, and the tuneing took me ages to get.
Otherwise, i think they play on 7-Stringed guitars..
Link: WWW.MNEMIC.COM
comments
print report bad tab
3 comments total.
0 reply
Chill 02 wrote on June 28 2006, 09:08 pm

Yeah, Mnemic actually uses 7 string guitars, but the tab's fairly accurate for the most part.

0 reply
Kreuger wrote on October 20 2006, 04:29 pm

No they used one six and one seven on certain songs. Most were done with 6

0 reply
Zev wrote on December 28 2006, 08:31 pm

Mostly they use 7 string guitars in standard tuning, and 6 on a few. This tab converted it to 6 pretty correctly though. Not many bands use 7, but I know that Mnemic does as inspired by Meshuggah's and other such bands use of a 7 string.

I want to post or [tab]
guest
You may want to rate the tab now too:
select rating
Please do not post tabs as comments. Select "correction" instead!