Oops, an error
Loading. Please wait.

Mindsaver Tab

version 1
version 1

Whole song

Interactive

862 views 1 this week
2 commentsread comments
1 2 3 4 5
please rate
add to favorites
launch autoscroll
font size
0
reset
how to read this tab
guitar tuner
Autoscroll
slow
fast
+/-
esc
set tempo
stop
Help us to improve Ultimate-Guitar.com Take our survey!
×
Author
This song is from Mnemic's best album "The Audio Injected Soul". I love this song, its 
favorite one off the album!
I havent seen anyone attempt this song so here is my attempt!
By far it sounds good, If played tuned to C-G-C-F-A-D, YES I KNOW THAT THEY ALSO IN B
I will attempt other songs in about a week!
Have fun!

Mnemic - Mindsaver
Tune guitar to CGCFAD, and get ready to palm mute :-) hehe

M - Palm Mute
H - Hammer-On
P - Pull-Off

Guitar 1
**Those are 1's (ones) not 11's (elevens)
Intro
|--------------------------------------|
|--------------------------------------|
|-----------Guitar 2)------------------|
|--------------------------------------|  X3
|2-2-011-2-----------------------------|
|2-2-011-2--2-1-1-h2--2-1-1-h2--2-3-3-3|
              -M-       -M-
|-------------------|
|-------------------|
|-------------------|
|-------------------|
|2-2-011-2--2-11P-0-|(Drum Ride)
|2-2-011-2--2-11P-0-|    Ding

Main Riff
|------------------------------------------|
|------------------------------------------|
|------------------------------------------|
|------------------------------------------|
|2-2-011-2--2-011-2--2-011-2--2-3-3-3-3----|
|2-2-011-2--2-011-2--2-011-2--2-3-3-3-3----|
     -M-      -M-      -M------------------|
|------------------------------------------|
|------------------------------------------|
|------------------------------------------|
|------------------------------------------|
|2-2-011-2--2-011-2--2-011-2--2-5-5-5-5----|
|2-2-011-2--2-011-2--2-011-2--2-5-5-5-5----|
     -M-      -M-      -M------------------|
Pre-Chorus
|---------------------------------------------------------------------------|
|---------------------------------------------------------------------------|
|---------------------------------------------------------------------------|
|--------------------3-3-3-3-3-3-3-3---------------------5-5-5-5-3-3-3-3----|
|0-0-232-0-0-232-0-0-1-1-1-1-1-1-1-1-0-0-232-0-0-232-0-0-3-3-3-3-1-1-1-1----|
|0-0-232-0-0-232-0-0-----------------0-0-232-0-0-232-0-0--------------------|
 -M-         -M-                     -M-         -M-------------------------|

Chorus (Guitar 1 & Bass)
|---------------------------------------------------------------|
|---------------------------------------------------------------|
|---------------------------------------------------------------|
|0-0-0-0-0-0-0-0-3-3-3-3-3-3-3-3-7-7-7-7-7-7-7-7-8-8-8-8-8-8-8-8|
|0-0-0-0-0-0-0-0-3-3-3-3-3-3-3-3-7-7-7-7-7-7-7-7-8-8-8-8-8-8-8-8|
|0-0-0-0-0-0-0-0-3-3-3-3-3-3-3-3-7-7-7-7-7-7-7-7-8-8-8-8-8-8-8-8|

Guitar 2 Plays this over Chorus (Mircea plays this synthesizer sound lead)
**Use Some Modulation with alot of Reverb, and attack really sharp & quick to get this
sound
|---------------------------------------------------------------|
|---------7---5---4--------------------------7---5---4----------|
|-----6--------------------------------6--------------------4---|
|---------------------------------------------------------------|
|---------------------------------------------------------------|
|---------------------------------------------------------------|

Verse
|------------------------|
|------------------------|
|------------------------|
|------------------------|
|------5----------X4-----|
|5p0-5p-5p0-5-000----6666|
              -M-
Pre-Chorus
|---------------------------------------------------------------------------|
|---------------------------------------------------------------------------|
|---------------------------------------------------------------------------|
|--------------------3-3-3-3-3-3-3-3---------------------5-5-5-5-3-3-3-3----|
|0-0-232-0-0-232-0-0-1-1-1-1-1-1-1-1-0-0-232-0-0-232-0-0-3-3-3-3-1-1-1-1----|
|0-0-232-0-0-232-0-0-----------------0-0-232-0-0-232-0-0--------------------|
 -M-         -M-                     -M-         -M-------------------------|
Verse 2
|------------------------|
|------------------------|
|------------------------|
|------------------------|
|------5----------X4-----|
|5p0-5p-5p0-5-000----6666|
              -M-
Chorus (Guitar 1 & Bass)
|---------------------------------------------------------------|
|---------------------------------------------------------------|
|---------------------------------------------------------------|
|0-0-0-0-0-0-0-0-3-3-3-3-3-3-3-3-7-7-7-7-7-7-7-7-8-8-8-8-8-8-8-8|
|0-0-0-0-0-0-0-0-3-3-3-3-3-3-3-3-7-7-7-7-7-7-7-7-8-8-8-8-8-8-8-8|
|0-0-0-0-0-0-0-0-3-3-3-3-3-3-3-3-7-7-7-7-7-7-7-7-8-8-8-8-8-8-8-8|
Guitar 2
|-----------------------------------------------------------------|
|---------7---5---4--------------------------7---5---4------------|
|-----6--------------------------------6--------------------4-----|
|-----------------------------------------------------------------|
|-----------------------------------------------------------------|
|-----------------------------------------------------------------|
Main riff
|------------------------------------------|
|------------------------------------------|
|------------------------------------------|
|------------------------------------------|
|2-2-011-2--2-011-2--2-011-2--2-3-3-3-3----|
|2-2-011-2--2-011-2--2-011-2--2-3-3-3-3----|
     -M-      -M-      -M------------------|
|------------------------------------------|
|------------------------------------------|
|------------------------------------------|
|------------------------------------------|
|2-2-011-2--2-011-2--2-011-2--2-5-5-5-5----|
|2-2-011-2--2-011-2--2-011-2--2-5-5-5-5----|
     -M-      -M-      -M------------------|

Beginning of Bridge
Guitar 1
|--------------------------------|
|--------------------------------|
|--------------------------------|
|--------------------------------|
|7--------------3----------------|
|7--------------3----------------|
Guitar 2 (Mircea)
|--------------------------------|
|--------------------------------|
|--------6---------------9-------|
|9---------------9---------------|
|--------------------------------|
|--------------------------------|

BreakDown (Mircea Only)
|--|    |--|    |--|    |--|
|--|    |--|    |12|    |14|
|12| x8 |11| X8 |--| X8 |--| X8
|--|    |--|    |--|    |--|
|--|    |--|    |--|    |--|
|--|    |--|    |--|    |--|

|--|    |--|    |--|    |-|
|--|    |--|    |12|    |9|
|12| x8 |11| X8 |--| X8 |-| X16
|--|    |--|    |--|    |-|
|--|    |--|    |--|    |-|
|--|    |--|    |--|    |-|

|--|    |--|    |--|
|--|    |12|    |14|
|11| X8 |--| X8 |--| X8  (THEN REPEAT THE SECOND SECTION TO THE LAST
|--|    |--|    |--|                    SECTION AGAIN)
|--|    |--|    |--|
|--|    |--|    |--|
This is when Mircea is still playing, and drums come in:
|---------------------------------|
|---------------------------------|
|---------------------------------|
|---------------------------------|
|0-0-0-0-0--0-0-0-0-0--0-0-0-0----|
|0-0-0-0-0--0-0-0-0-0--0-0-0-0----|
 --------PALM MUTE----------------|

Guitar 1 - Outro of Bridge
|---------------------------------------------------------------|
|---------------------------------------------------------------|
|---------------------------------------------------------------|
|---------------------------------------------------------------|
|0-------------3------------5------------3------------2---------|
|0-------------3------------5------------3------------2---------|
Guitar 2
|---------------------------------------------------------------|
|---------------------------------------------------------------|
|--------6---------------9----------------6--------------9------|
|9---------------9----------------9---------------9-------------|
|---------------------------------------------------------------|
|---------------------------------------------------------------|
Pre-Chorus Riff
|---------------------------------------------------------------------------|
|---------------------------------------------------------------------------|
|---------------------------------------------------------------------------|
|--------------------3-3-3-3-3-3-3-3---------------------5-5-5-5-3-3-3-3----|
|0-0-232-0-0-232-0-0-1-1-1-1-1-1-1-1-0-0-232-0-0-232-0-0-3-3-3-3-1-1-1-1----|
|0-0-232-0-0-232-0-0-----------------0-0-232-0-0-232-0-0--------------------|
 -M-         -M-                     -M-         -M-------------------------|
Fill-In Riff
|------------------------|
|------------------------|
|------------------------|
|------------------------|
|0-0--0-0--0--0-0--0-0--0|
|0-0--0-0--0--0-0--0-0--0|
Verse 3
|------------------------|
|------------------------|
|------------------------|
|------------------------|
|------5----------X4-----|
|5p0-5p-5p0-5-000----6666|
              -M-
Chorus
Chorus (Guitar 1 & Bass)
|---------------------------------------------------------------|
|---------------------------------------------------------------|
|---------------------------------------------------------------|
|0-0-0-0-0-0-0-0-3-3-3-3-3-3-3-3-7-7-7-7-7-7-7-7-8-8-8-8-8-8-8-8|
|0-0-0-0-0-0-0-0-3-3-3-3-3-3-3-3-7-7-7-7-7-7-7-7-8-8-8-8-8-8-8-8|
|0-0-0-0-0-0-0-0-3-3-3-3-3-3-3-3-7-7-7-7-7-7-7-7-8-8-8-8-8-8-8-8|
Guitar 2
|-----------------------------------------------------------------|
|---------7---5---4--------------------------7---5---4------------|
|-----6--------------------------------6--------------------4-----|
|-----------------------------------------------------------------|
|-----------------------------------------------------------------|
|-----------------------------------------------------------------|

if you'd like to correct please do, cuz  Mnemic 
are hard as hell to tab, to me..., so maybe a few opinions can turn this song around!
Peace
Suggest correction
Give kudos to tab author, rate the tab!
1 2 3 4 5
comments
print report bad tab
2 comments total.
0 reply
Kreuger 791 wrote on October 20 2006, 04:49 pm

Seems like an alright start

0 reply
L0G05 482 wrote on December 22 2007, 10:53 am

mnemic are SUPER easy to tab

guest
You may want to rate the tab now too:
select rating
Please do not post tabs as comments. Select "correction" instead!