Oops, an error
Loading. Please wait.

Nothing Hurts More Tab

23 views 1 this week
no commentswrite comment
1 2 3 4 5
please rate
add to favorites
launch autoscroll
font size
0
reset
how to read this tab
guitar tuner
Tab Pro tools
  • play this tab
  • loop segment
  • change instrument
  • show fretboard
  • metronome
Autoscroll
slow
fast
+/-
esc
set tempo
stop
Difficulty
novice
Nothing Hurts More by Mnemonic

Tabbed by: Jules Gatz
Tuning: Standard E

Legend
h = Hammer On
\ = Slide Down

Intro1
e ----------------------------------------------|
B ----------------------------------------------|
G ----------------------------------------------|
D 7h9999-----------------7h9999----7------------|
A -------9----------------------7h9-9-7---------|
E ---------9p7777-5h7777------------------------|

Intro2 (Listen to the song for strumming rhythm)
e -------5-5-3-3--------------------------------|
B -------5-5-3-3--------------------------------|
G --10-9-7-5-5-3--------------------------------|
D 9-10-9-7-7-5-5-3-2----------------------------|
A 9-9--7-5-7-3-5-3-2----------------------------|
E 7------5-5-3-3-1-0----------------------------|

Verses1
e ----------------------------------------------|
B ----------------------------------------------|
G ---0-----0--------0-----0--------4-----4------|
D --9-9---9-9------7-7---7-7------5-5---5-5-----|
A -9---9-9---9----7---7-7---7----5---5-5---5----|
E 7-----7-----77-5-----5-----55-3-----3-----33--|

Verses2
e ----------------------------------------------|
B ----------------------------------------------|
G ---0---0--------------------------------------|
D --3-3--2--------------------------------------|
A -3---3-2--------------------------------------|
E 1------0--------------------------------------|

Chorus (Listen to the song for strumming rhythm)
e 7-7-5-5--7-7-5-5-------7-7-5-5--7-7---7-------|
B 7-7-5-5--7-7-5-5-------7-7-5-5--7-7---7-------|
G 7-9-7-5--7-9-7-5-------7-9-7-5--7-9---9-------|
D 9-9-7-7--9-9-7-7-3\2-2-9-9-7-7--9-9---9-------|
A 9-7-5-7--9-7-5-7-3\2---9-7-5-7--9-7---7-------|
E 7-7-5-5--7-7-5-5-1\0-0-7-7-5-5--7-7---7-------|
comments
We did not receive enough feedback on this tab! Please rate:
print report bad tab
1 2 3 4 5
I want to post or [tab]
guest
You may want to rate the tab now too:
select rating
Please do not post tabs as comments. Select "correction" instead!