Oops, an error
Loading. Please wait.

Shook Ones tab

version 2
version 2

Whole song

13,569 views 81 this week
7 commentsread comments
1 2 3 4 5
x 10
add to favorites
×
Save as Personal and add changes to this tab that will be seen only by you. Learn more ›
×
You can save this tab as Personal to edit and correct it or add notes. All changes will be seen only by you. Learn more »
launch autoscroll
font size
0
reset
how to read this tab
guitar tuner
edit
Autoscroll
slow
fast
+/-
esc
set tempo
stop
Author
-------------------------------------------------------------------------------
                             Shook Ones - Mobb Deep
-------------------------------------------------------------------------------
Tabbed by: Crash 2.0
Email: Crash26821atma@hotmail.com

Tuning: Standard/ EADGBE

E||-------------------------------------||
B||-------------------------------------||
G||------------3-----3------------------||
D||----3-----4----3---------------------||
A||--1----4-----------------------------||
E||-------------------------------------||


This should be 100% correct since the other tab some dude made was the complete 
Hope this works, as it should.

            
            
Suggest correction
Creating personal tab
Creating personal tab
You can edit any tab online and save it as your Personal.

You can edit, replace or remove any tab part or add personal notes – all changes will be seen only by you.

Personal tabs can be accessed anytime from any device, even offline.
Learn more »
comments
print report bad tab
7 comments total. Showing first comments.
0 reply
yesduc 92 Aug 19, 2013 07:40 AM

if i'm not wrong, the whole song goes simply: Bbm - F#
then try a fingerpicking similar to the riff to have a great acoustic alternative.

0 reply
metalchozen 281 Apr 29, 2015 01:12 AM

Clearly wrong. E||-------------------------------------||
B||-------------------------------------||
G||------------3-----3------------------||
D||----3-----4----3---------------------||
A||--4----3-----------------------------||
E||-------------------------------------||

Here is the true version. Please change it, that makes my ears bleed.
Bla bla bla, 20 words? Are you ****ing kidding me.

0 reply
DJonos 30 Oct 10, 2015 12:26 PM

after listening again i think it is:

E||-------------------------------------||
B||-------------------------------------||
G||------------3--3---3-----------------||
D||----3-3----4----3--------------------||
A||--1----6-----------------------------||
E||-------------------------------------||


hope u can change it

helped me a lot tho ! ;)

guest
You may want to rate the tab now too:
select rating
Wanna post a correction for this tab? Suggest correction