Oops, an error
Loading. Please wait.

Everloving Tab

version 1
version 1

Whole song

Interactive

by Moby
18,889 views 66 this week
1 commentread comment
1 2 3 4 5
x 6
add to favorites
launch autoscroll
font size
0
reset
how to read this tab
guitar tuner
Autoscroll
slow
fast
+/-
esc
set tempo
stop
Help us to improve Ultimate-Guitar.com Take our survey!
×
Tuning
E A D G B E
     Em                 Em                 Em
e|----------------------------------------------------------|
B|----------------------------------------------------------|
G|----0-----------------0-----------------0-----------------|
D|-------2-----2-----2-----2-----2-----2-----2-----2------2-|
A|----------2-----2-----------2-----2-----------2------2----|
E|-0--------------------------------------------------------|

     C                  C                       G
e|----------------------------------------------------------|
B|----1-----------------1-----------------1--------0--------|
G|-------0-----0-----0-----0-----0-----0--------------0-----|
D|----------2-----2-----------2-----2--------------------0--|
A|-3-----------------------------------------0--------------|
E|----------------------------------------------3-----------|

        G                       G
e|---------------------------------------------|
B|-----------0/3-----------------0-------------|
G|-0-----0--------0-----0-----0-----0-----0----|
D|----0--------------0-----0-----------0-----0-|
A|---------------------------------------------|
E|---------------------------------------------|

Second Verse
-------------
   Am                     Am                Am
e|----------------------------------------------------------|
B|----1------------------1-----------------1----------------|
G|-------2-----2-----2------2-----2-----2-----2-----2-----2-|
D|----------2-----2------------2-----2-----------2-----2----|
A|-0--------------------------------------------------------|
E|----------------------------------------------------------|


     Em                 Em                 Em
e|----------------------------------------------------------|
B|----------------------------------------------------------|
G|----0-----------------0-----------------0-----------------|
D|-------2-----2-----2-----2-----2-----2-----2-----2------2-|
A|----------2-----2-----------2-----2-----------2------2----|
E|-0--------------------------------------------------------|

   D            D                 D
e|-------------2------------------2----------------|
B|----3-----3-----3-----3------3-----3-----3-----3-|
G|-------2-----------2-----2------------2-----2----|
D|-0-----------------------------------------------|
A|-------------------------------------------------|
E|-------------------------------------------------|

Third Verse
------------
   Am                     Am                Am
e|----------------------------------------------------------|
B|----1------------------1-----------------1----------------|
G|-------2-----2-----2------2-----2-----2-----2-----2-----2-|
D|----------2-----2------------2-----2-----------2-----2----|
A|-0--------------------------------------------------------|
E|----------------------------------------------------------|


     Em                 Em                 Em
e|----------------------------------------------------------|
B|----------------------------------------------------------|
G|----0-----------------0-----------------0-----------------|
D|-------2-----2-----2-----2-----2-----2-----2-----2------2-|
A|----------2-----2-----------2-----2-----------2------2----|
E|-0--------------------------------------------------------|

    F                   F                 F
e|----------------------------------------------------------|
B|----------------------------------------------------------|
G|----2-----------------2-----------------2-----------------|
D|-------3-----3-----3-----3-----3-----3-----3-----3-----3--|
A|----------3-----3-----------3-----3-----------3-----3-----|
E|-1--------------------------------------------------------|
Suggest correction
comments
print report bad tab
1 comment total.
0 reply
philiponify 68 Oct 18, 2016 04:20 PM

The C part needs a C chord which means 2 instead of 0 on the D. Apart from that it sounds great!

guest
You may want to rate the tab now too:
select rating
Wanna post a correction for this tab? Suggest correction