Oops, an error
Loading. Please wait.

James Bond Theme Tab

by Moby
179,746 views 9 this week
2 commentsread comments
1 2 3 4 5
worth learning
x 11
add to favorites
launch autoscroll
font size
0
reset
how to read this tab
guitar tuner
Autoscroll
slow
fast
+/-
esc
set tempo
stop
Help us to improve Ultimate-Guitar.com Take our survey!
×
moby.
Tabbed by tom heylen they83@yahoo.com.
  
Title: James Bond Theme
Artist: Moby
>From James Bond soundtrack and Moby’s cd “I Like To Score”
Tabbed By: Tom Heylen
For comments, corrections: they83@yahoo.com

I just bought Moby’s cd “I Like To Score” and because I like this song and it’s fun to play along with it on guitar, I figured it out. I never found a transcription of it on the net so here it is. This is my first transcription but I think everything is correct.
STANDARD TUNING

Riff 1: e---------------------------------------------------------------|
        B---------------------------------------------------------------|
        G---------------------------------------------------------------|
        D---------------------------------------------------------------|
        A---------------------------------------------------------------|      
        E-2-222-2--0-0-0-0--3-333-3—-0-0-0-0--2-222-2—-0-0-0-0--3-333-3-|
            | |
       3 following notes must be played fast

        e---------------------------------------------------------------|
        B---------------------------------------------------------------|
        G---------------------------------------------------------------|
        D-----------------------------------1-0-------------------------|
        A-----------------------------------------2-0-2-----------------|
        E-2-222-2—-0-0-0-0—-3-333-3—-1-1-0------------------------------|

Riff 2: with distortion
        e---------------------------------------------------------------|
        B---------------------------------------------------------------|
        G-4-4---8-7---2-4----4-3----5-6---------------------------------|
        D-4-4---8-7---2-4----5-4----6-7---------------------------------|
        A-2-2---6-5---0-2----5-4----6-7---------------------------------|
        E--------------------3-2----4-5---------------------------------|

Riff3: with distortion
       e----------------------------------------------------------------|
       B-----------------------------------------------------------12-12|
       G-9----11-9-11—-12----11-9-11—-9----11-9-11—-12----11-9-11—-12-12|
       D-9----11-9-11—-12----11-9-11—-9----11-9-11—-12----11-9-11—-10-10|
       A-7-----9-9—-9—-10-----9-9—-9—-7-----9-9—-9—-10-----9-9-—9—------|
       E----------------------------------------------------------------|

End on: with distortion
        e---------------------------------------------------------------|
        B-12-12----12-12----12--12--------------------------------------|
        G-12-12----12-12----12--12--------------------------------------|
        D-10-10----10-10----10--10--------------------------------------|
        A---------------------------------------------------------------|
        E---------------------------------------------------------------|
 
:: Ultimate Guitar Archive :: 
http://www.ultimate-guitar.com 

Suggest correction
What's this?
You can suggest a correction to this tab. Community and Mods will review your correction and vote to approve or reject it.
comments
print report bad tab
2 comments total.
+7 reply
crash 19 wrote on July 23 2002, 12:00 am

i'm fairly certain that the 1st riff goes more along the lines of:

x2
e||-----------------------------------------------||
B||-----------------------------------------------||
G||*---------------------------------------------*||
D||*---------------------------------------------*||
A||-----------------------------------------------||
E||--0--222-2---0--0--0---0--333-3---2--2--2------||
(repeat 2 times)


------------------------------------------------------------||
------------------------------------------------------------||
------------------------------------------------------------||
---------------------------------------------1--0-----------||
----------------------------------------------------202-----||
--0--222-2---0--0--0---0--333-3---2--1--0-------------------||

0 reply
luca.laspina02 11 wrote on August 30 2015, 08:00 am

man i think that the 3rd riff is wrong

guest
You may want to rate the tab now too:
select rating
Please do not post tabs as comments. Select "correction" instead!