Oops, an error
Loading. Please wait.

Amor Chords

version 1
version 1

Whole song

59 views 1 this week
no commentswrite comment
1 2 3 4 5
3 more votes to show rating
add to favorites
launch autoscroll
font size
0
reset
transpose
0
reset
display chords
guitar tuner
×
Best way to learn
"Amor"
Autoscroll
slow
fast
+/-
esc
set tempo
stop
pues este es la vesion correcta de mocedades--Amor
está rola esta chida,ke se la dedico a mi novia
JANETH que la AMO 1 chingo

ACORDES: en los acordes de G y de A los pueden hacer con
la vercion 2-(sejilla) del glosario de acordes de LaCuerda, chequenlo.

Empiesa con requinto y se repite 2 veces.
(Acompañamiento con D, A, G, A, D.)

   D                        A
e -2-2-2--3--5-5-5-5--3-2-|-0-0-0-2-3--3-3-2-0-|
B -3-3-3--5--7-7-7-7--5-3-|-1-1-1-3-5--5-5-3-1-|
G ------------------------|--------------------|
A ------------------------|--------------------|
D ------------------------|--------------------|
E ------------------------|--------------------|
   G                     A
e --------0-2--2-2-0----|-----------0------0-|
B -3-3-3--1-3--3-3-1--3-|-2-2-2--2--1--2-3-1-|
G -4-4-4--------------4-|-2-2-2--3-----3-4---|
A ----------------------|--------------------|
D ----------------------|--------------------|
E ----------------------|--------------------|

D                             A                G# G
No era mi intención hablar de amor pero ya ves,
                          D
me ha traicionado el corazón,
D                               A                 G# G
y es que estando tu por medio de que puedo hablar,
                    D      A        G          D
si eres mi unica razón de amor, de amor, solo amor.

D                            A                G# G
Todo el mundo ha dicho yo te quiero alguna vez,
                       D
y ha regalado alguna flor
D                      A            G# G
Es una palabra tan sencilla de decir,
                     D       A        G             D
y tan difícil de sentir, de amor, de amor, solo de amor.

(Acompañamiento con D, A, G, A, D.)se repite 2 veces

   D                        A
e -2-2-2--3--5-5-5-5--3-2-|-0-0-0-2-3--3-3-2-0-|
B -3-3-3--5--7-7-7-7--5-3-|-1-1-1-3-5--5-5-3-1-|
G ------------------------|--------------------|
A ------------------------|--------------------|
D ------------------------|--------------------|
E ------------------------|--------------------|

 G                     A
e --------0-2--2-2-0----|-----------0------0-|
B -3-3-3--1-3--3-3-1--3-|-2-2-2--2--1--2-3-1-|
G -4-4-4--------------4-|-2-2-2--3-----3-4---|
A ----------------------|--------------------|
D ----------------------|--------------------|
E ----------------------|--------------------|

D                        A            G# G
Nunca supe hacer poemas solo se cantar,
                          D
y a mi me gusta esta canción,
D                      A             G# G
Es poquita cosa es sincera es para ti
                   D       A         G            D
es una simple canción, de amor, de amor, solo de amor,
    A        G           D
de amor, de amor, solo amor.

(Acompañamiento con D, A, G, A, D.)se repite 2 veces

   D                        A
e -2-2-2--3--5-5-5-5--3-2-|-0-0-0-2-3--3-3-2-0-|
B -3-3-3--5--7-7-7-7--5-3-|-1-1-1-3-5--5-5-3-1-|
G ------------------------|--------------------|
A ------------------------|--------------------|
D ------------------------|--------------------|
E ------------------------|--------------------|

 G                     A
e --------0-2--2-2-0----|-----------0------0-|
B -3-3-3--1-3--3-3-1--3-|-2-2-2--2--1--2-3-1-|
G -4-4-4--------------4-|-2-2-2--3-----3-4---|
A ----------------------|--------------------|
D ----------------------|--------------------|
E ----------------------|--------------------|

okas ia sta, quien no quiera hacerlo con G# o con sejilla
tambien sta bien se oye 
de >>>>>>>> MiZaEl<<<<<<<< pa´Todos
     >>>>>> Te Amo >>>><<<<<<
   >>>>>>> JanetH <<<<<<
Suggest correction
Give kudos to tab author, rate the tab!
1 2 3 4 5
comments
print report bad tab
guest
You may want to rate the tab now too:
select rating
Wanna post a correction for this tab? Suggest correction