Oops, an error
Loading. Please wait.

Amor Tab

32 views 1 this week
no commentswrite comment
1 2 3 4 5
3 more votes to show rating
add to favorites
launch autoscroll
font size
0
reset
how to read this tab
guitar tuner
×
Best way to learn
"Amor"
Autoscroll
slow
fast
+/-
esc
set tempo
stop
   D                   A
E--2-2-2-3-3/5-5-5-3-2-0-0-0-2-2/3-3-3-
B--3-3-3-5-5/7-7-7-5-3-2-2-2-3-3/5-5-5-
G--------------------------------------
D--------------------------------------
A--------------------------------------
E--------------------------------------


         Bm        A        D
E-0-0-0-2-3-3-3-2-0-0-0-0--0-2-2-2-----
B-2-2-2-3-5-5-5-3-2-0-0-0--2-3-3-3-----
G--------------------------------------
D--------------------------------------
A--------------------------------------
E--------------------------------------

Es el puro requinto a 2 cuerdas y los acordes que lleva el requinto
(la cancion no lleva esos acordes)
Suggest correction
Give kudos to tab author, rate the tab!
1 2 3 4 5
comments
print report bad tab
guest
You may want to rate the tab now too:
select rating
Wanna post a correction for this tab? Suggest correction