Oops, an error
Loading. Please wait.

La Secretaria Tab

45 views 1 this week
no commentswrite comment
1 2 3 4 5
3 more votes to show rating
add to favorites
×
Save as Personal and add changes to this tab that will be seen only by you. Learn more ›
×
You can save this tab as Personal to edit and correct it or add notes. All changes will be seen only by you. Learn more »
save as personal
new!
launch autoscroll
font size
0
reset
how to read this tab
guitar tuner
Autoscroll
slow
fast
+/-
esc
set tempo
stop
Esta canción esta armonizda con los siguientes acordes y en el tono
en que la canta MOCEDADES. Si tienen la canción chequenla.


 Am2     E/G#    Bb/G   Bm/F#   Dm2/F   G#m7-5°   E/B    Am/C
E - 0   E - 0   E - 0   E - 0   E - 0    E - X   E - 0   E - 0 
B - 0   B - 5   B - 3   B - 3   B - 3    B - 3   B - 0   B - 1
G - 5   G - 4   G - 3   G - 2   G - 2    G - 4   G - 1   G - 2
D - 7   D - 0   D - 3   D - 0   D - 3    D - 3   D - 2   D - 2
A - 0   A - X   A - X   A - X   A - 0    A - X   A - 2   A - 3
E - 0   E - 4   E - 3   E - 2   E - 1    E - 4   E - X   E - 0


C    G      Am           E7
Secretaria, la que no habla
C        G      Am         E7
siempre atenta, diciendo nada.

INTRO:
       Am      Dm    Am    Dm    Am
E ---------0---1-----0--0--1-----0--|
B ---------1---3--3--1-----3--3--1--|
G ---------2---2-----2-----2-----2--|
D ---------2---0-----2-----0-----2--|
A -----0-------------------------0--|
E --0-------------------------------|
                             Te firme . . . etc


      Am2
Te firmé mis veinte años
      E/G#
te ayudé a subir peldaños
        Bb/G                    Bm/F#
y entre copa y copa me hice necesaria
       Dm2/F                       Am
Y al negarme a ser amable me ignoraste
         E7           Am
y sólo fuí tu secretaria.

       Am      Dm    Am    Dm    Am
E ---------0---1-----0--0--1-----0--|
B ---------1---3--3--1-----3--3--1--|
G ---------2---2-----2-----2-----2--|
D ---------2---0-----2-----0-----2--|
A -----0-------------------------0--|
E --0-------------------------------| 
                             Hemos . . .


      Am2
Hemos compartido juntos
     E/G#
tus fracasos y tus triunfos
        Bb/G                     Bm/F#
y hasta creo haber tejido yo tus canas
       Dm2/F
pero allá a las siete en punto
      Am            E7               Am    G
tú te ibas con los tuyos, yo a mi casa. 


C                   G
Fuí también la celestina
       G#m7-5°      Am7
de tus citas clandestinas
        F                    G
y aprendí a estar bien callada
C                   G
luego un guiño de malicia
       G#m7-5°      Am
una caricia de cumplido
      F            E7
y un gentil hasta mañana. 


    Am2
Era yo quien escogía
      E/G#
las flores que cada día
   Bb/G                  Bm/F#
enviabas a tus jóvenes amadas
    Dm2/F                      Am
era yo quien te firmaba las tarjetas
         E7        Am
hasta en eso secretaria.


       Am      Dm    Am    Dm    Am
E ---------0---1-----0--0--1-----0--|
B ---------1---3--3--1-----3--3--1--|
G ---------2---2-----2-----2-----2--|
D ---------2---0-----2-----0-----2--|
A -----0-------------------------0--|
E --0-------------------------------|


C                   G
Fuí también la celestina
       G#m7-5°      Am7
de tus citas clandestinas
        F                    G
y aprendí a estar bien callada
C                   G
luego un guiño de malicia
       G#m7-5°      Am
una caricia de cumplido
      F            E7
y un gentil hasta mañana.


     Am2 
Secretaria, secretaria
         E/G#
la que escucha, escribe y calla
       Bb/G                     Bm/F#
la que hizo de un despacho tu morada
      Dm2/F           E7         Am
casi esposa, buen soldado, enfermera
        E7         Am   E/B   Am/C   Dm
y un poquito enamorada,
      Dm2/F           E7         Am
casi esposa, buen soldado y enfermera
        E7         Am
y un poquito enamorada.

FINAL
       Am      Dm    Am    Dm    Am
E ---------0---1-----0--0--1-----0--|
B ---------1---3--3--1-----3--3--1--|
G ---------2---2-----2-----2-----2--|
D ---------2---0-----2-----0-----2--|
A -----0-------------------------0--|
E --0-------------------------------|
Suggest correction
Give kudos to tab author, rate the tab!
1 2 3 4 5
comments
print report bad tab
guest
Wanna post a correction for this tab? Suggest correction