Oops, an error
Loading. Please wait.

Bubble Butt Tab

by Mod
1,732 views 1 this week
no commentswrite comment
1 2 3 4 5
3 more votes to show rating
add to favorites
launch autoscroll
font size
0
reset
how to read this tab
guitar tuner
Autoscroll
slow
fast
+/-
esc
set tempo
stop
Help us to improve Ultimate-Guitar.com Take our survey!
×
Author
#----------------------------------PLEASE NOTE---------------------------------#
#This file is the author's own work and represents their interpretation of the #
#song. You may only use this file for private study, scholarship, or research. #
#------------------------------------------------------------------------------#


MOD
Bubble Butt
U.S.A. For M.O.D
0:44

Tuning: Standard
e B G D A E


Drums x4
Bass  x4

0:06
Verse:
"Bubble Butt! Bubble Butt..."
              
              x10
e-/-||---------||
B-/-||---------||
G-/-||---------||
D-/-||--4-4-5--||
A-/-||--4-4-5--||
E-/-||--2-2-3--||
    PM|-------|


Fill: "She's so fat!"

e----------||
B----------||
G----------||
D-4-4--(2)-||
A-4-4--(2)-||
E-2-2--(0)-||


Chorus: "Bubble-uble-ub-bubb-ub-le-bubbu-leu-buble-Bubble Butt!"

e--------------------------||--||
B--------------------------||--||
G--------------------------||--||
D-4-4-4-4-4-4-4-4-4-4--(2)-||--||
A-4-4-4-4-4-4-4-4-4-4--(2)-||--||
E-2-2-2-2-2-2-2-2-2-2--(0)-||--||


Bass/Drums x4

Verse:        x10
e-/-||---------||
B-/-||---------||
G-/-||---------||
D-/-||--4-4-5--||
A-/-||--4-4-5--||
E-/-||--2-2-3--||
    PM|-------|



Chorus:

e--------------------------||
B--------------------------||
G--------------------------||
D-4-4-4-4-4-4-4-4-4-4--(2)-||
A-4-4-4-4-4-4-4-4-4-4--(2)-||
E-2-2-2-2-2-2-2-2-2-2--(0)-||


Outro:

e-----||
B-----||
G-----||
D-2~--||
A-2~--||
E-0~--||


PM = Palm Mute
~  = Vibrato
/  = Slide
() = Hold Chord


Tabbed by Jeff
Jam66upyrs@msn.com




Suggest correction
Give kudos to tab author, rate the tab!
1 2 3 4 5
comments
print report bad tab
guest
You may want to rate the tab now too:
select rating
Wanna post a correction for this tab? Suggest correction