Oops, an error
Loading. Please wait.

Estados De Un Salto Tab

56 views 1 this week
no commentswrite comment
1 2 3 4 5
3 more votes to show rating
add to favorites
launch autoscroll
font size
0
reset
how to read this tab
guitar tuner
Autoscroll
slow
fast
+/-
esc
set tempo
stop
Help us to improve Ultimate-Guitar.com Take our survey!
×
(Acústico)

Progresiones (CEJILLA EN TRASTE 4 SIEMPRE)
Guitarra 1 - RIFF: (entre paréntesis la correspondencia con acordes)
(tocar todo seguido y en repetición)
   (C*)                                            
 E|---------------------------------------|
 B|---------------------------------------|
 G|-----0--------0--------0--------0------|
 D|---4---4----4---4----4---4----4---4----|
 A|-3--------3--------3--------3----------|
 E|---------------------------------------|

   (Am)                                            
 |---------------------------------------|
 |---------------------------------------|
 |-----2--------2--------0--------0------|
 |---4---4----4---4----4---4----4---4----|
 |-0--------0--------0--------0----------|
 |---------------------------------------|

   (G*)                                           
 |---------------------------------------|
 |---------------------------------------|
 |-----0--------0--------0--------0------|
 |---4---4----4---4----4---4----4---4----|
 |---------------------------------------|
 |-3--------3--------3--------3----------|

   (Em7)
 |---------------------------------------|
 |---------------------------------------|
 |-----0--------0--------0--------0------|
 |---4---4----4---4----4---4----4---4----|
 |---------------------------------------|
 |-0--------0--------0--------0----------|


Guitarra 2 (o sustitución de guitarra 1) - ACORDES:
C* (x32030)
Am (x02210)
G* (320030)
Em7 (x22030)

La canción se toca in crescendo (aumentando la intensidad hacia el final).
En la segunda mitad (cuando entra la progresión de acordes)
se puede tocar a 2 guitarras, o a sólo 1 siguiendo con el riff
o cambiando a los acordes, como se prefiera.
--Cejilla en traste 4--

LETRA+ACORDES:

[Riff]
Sólo estoy dejando en la mesa el peor de mis legados.
[Riff]
No es que me interese lo que pasa, es que estoy obsesionado
[Riff]
con lo de seguir en el exilio, con lo de volver a casa,
[Riff]
y limar las mismas diferencias y empezar la temporada
[Riff]
de salir y de conversaciones, de reencuentros y de vicios.
[Riff] + Va entrando la progresión de acordes en 2ª guitarra
Sabes de algo sucio que me encanta, sólo que hora no es lo mismo,
[Riff] + [Acordes en 2ª guitarra]
Y al normalizar las consecuencias, vamos a cerrar un ciclo
[Riff] + [Acordes en 2ª guitarra]
de comodidad y de fachadas, de talentos malvendidos.

[Riff] + [Acordes en 2ª guitarra]
[Riff] + [Acordes en 2ª guitarra]

[Riff] + [Acordes en 2ª guitarra]
Esa tradición que te condena va a servirnos de castigo,
[Riff] + [Acordes en 2ª guitarra]
hasta el punto de no respetarnos y seguir por compromiso.

[Riff] + [Acordes en 2ª guitarra]
[Riff] + [Acordes en 2ª guitarra]
[Principio del riff (C*) en loop]?


@Mixalberto
Suggest correction
Give kudos to tab author, rate the tab!
1 2 3 4 5
comments
print report bad tab
guest
You may want to rate the tab now too:
select rating
Wanna post a correction for this tab? Suggest correction