Oops, an error
Loading. Please wait.

Strade Di Coraggio tab

166 views 1 this week
no commentswrite comment
1 2 3 4 5
3 more votes to show rating
add to favorites
×
Save as Personal and add changes to this tab that will be seen only by you. Learn more ›
×
You can save this tab as Personal to edit and correct it or add notes. All changes will be seen only by you. Learn more »
launch autoscroll
font size
0
reset
how to read this tab
guitar tuner
edit
Autoscroll
slow
fast
+/-
esc
set tempo
stop
Author
[Intro]

         C         F            C           G                 
e|----------0------------------------0----------3----------|
B|-------2--------------0---------2------------------------|
G|-----0------------2-----------0-----------0--------------|
D|-2------------3-----------2-----------0------------------|
A|---------------------------------------------------------|
E|---------------------------------------------------------|
         C          F          C             G
e|----------0------------------------0-------3-------------|
B|-------2--------------0---------2----------3-------------|
G|-----0------------2-----------0------------0-------------|
D|-2------------3-----------2----------------0-------------|
A|-------------------------------------------2-------------|
E|-------------------------------------------3-------------|


[Verse]

         C         F           C           G              x2
e|----------0------------------------0----------3----------|
B|-------2--------------0---------2------------------------|
G|-----0------------2-----------0-----------0--------------|
D|-2------------3-----------2-----------0------------------|
A|---------------------------------------------------------|
E|---------------------------------------------------------|

      Am           F            C          G                                  
e|-------0---------------------------0----------3----------|
B|----------1-----------0---------2------------------------|
G|-----2------------2-----------0-----------0--------------|
D|-2------------3-----------2-----------0------------------|
A|---------------------------------------------------------|
E|---------------------------------------------------------|

       Am         F             C               G    last 2 x2
e|-------0---------------------------0----------3----------|
B|----------1-----------0---------2-------------3----------|
G|-----2------------2-----------0---------------0----------|
D|-2------------3-----------2-------------------0----------|
A|----------------------------------------------2----------|
E|----------------------------------------------3----------|


[Chorus]

        C            G            Am           F          x5
e|-----------0------------3-----------0-------------1------|
B|--------2------------3-----------1-------------1---------|
G|------0-----------0------------2-------------2-----------|
D|---------------------------------------------------------|
A|---3-----------2------------0----------------------------|
E|----------------------------------------1----------------|
         C            G       F         (F)
e|----------0------------3----1----------------------------|
B|-------2------------3-------1----------------------------|
G|-----0------------0---------2----------------------------|
D|----------------------------3----------------------------|
A|--3------------2------------3----------------------------|
E|----------------------------1----------------------------|


[Solo]

e|------------------------------------8-8-8-8-8-8-8---5--------------------|
B|--------------5-h6--5TR-----5-------8-8-8-8-8-8-8---6--5--8----8---------|
G|--------5-h7-------------7----5------------------------0--7----b7--5--5--|
D|--5-h7-------------------------------------------------------------------|
A|-------------------------------------------------------------------------|
E|-------------------------------------------------------------------------|


[Verse]
         C         F           C           G              x2
e|----------0------------------------0----------3----------|
B|-------2--------------0---------2------------------------|
G|-----0------------2-----------0-----------0--------------|
D|-2------------3-----------2-----------0------------------|
A|---------------------------------------------------------|
E|---------------------------------------------------------|

      Am           F            C          G                                  
e|-------0---------------------------0----------3----------|
B|----------1-----------0---------2------------------------|
G|-----2------------2-----------0-----------0--------------|
D|-2------------3-----------2-----------0------------------|
A|---------------------------------------------------------|
E|---------------------------------------------------------|

       Am         F             C               G    last 2 x2
e|-------0---------------------------0----------3----------|
B|----------1-----------0---------2-------------3----------|
G|-----2------------2-----------0---------------0----------|
D|-2------------3-----------2-------------------0----------|
A|----------------------------------------------2----------|
E|----------------------------------------------3----------|


[Chorus]

        C            G            Am           F          x5
e|-----------0------------3-----------0-------------1------|
B|--------2------------3-----------1-------------1---------|
G|------0-----------0------------2-------------2-----------|
D|---------------------------------------------------------|
A|---3-----------2------------0----------------------------|
E|----------------------------------------1----------------|
         C            G       F         (F)
e|----------0------------3----1----------------------------|
B|-------2------------3-------1----------------------------|
G|-----0------------0---------2----------------------------|
D|----------------------------3----------------------------|
A|--3------------2------------3----------------------------|
E|----------------------------1----------------------------|


[Solo 1]

e|-------------5------------------------------------5----------------------|
B|-------5--------8--------5------------------5--------8--5-------8--------|
G|-5-h7-----5--------5-h7-----5---------5-h7-----5-----------7----p7--5--5-|
D|-------------------------------7--5--------------------------------------|
A|-------------------------------------------------------------------------|
E|-------------------------------------------------------------------------|


[Verse]
         C         F           C           G              x2
e|----------0------------------------0----------3----------|
B|-------2--------------0---------2------------------------|
G|-----0------------2-----------0-----------0--------------|
D|-2------------3-----------2-----------0------------------|
A|---------------------------------------------------------|
E|---------------------------------------------------------|

      Am           F            C          G                                  
e|-------0---------------------------0----------3----------|
B|----------1-----------0---------2------------------------|
G|-----2------------2-----------0-----------0--------------|
D|-2------------3-----------2-----------0------------------|
A|---------------------------------------------------------|
E|---------------------------------------------------------|

       Am         F             C               G    last 2 x2
e|-------0---------------------------0----------3----------|
B|----------1-----------0---------2-------------3----------|
G|-----2------------2-----------0---------------0----------|
D|-2------------3-----------2-------------------0----------|
A|----------------------------------------------2----------|
E|----------------------------------------------3----------|


[Chorus 1]

        C            G            Am           F          x5
e|-----------0------------3-----------0-------------1------|
B|--------2------------3-----------1-------------1---------|
G|------0-----------0------------2-------------2-----------|
D|---------------------------------------------------------|
A|---3-----------2------------0----------------------------|
E|----------------------------------------1----------------|
         C            G          Am            F
e|----------0------------3------------0--------1-----------|
B|-------2------------3------------1-----------1-----------|
G|-----0------------0------------2-------------2-----------|
D|---------------------------------------------3-----------|
A|--3------------2------------0----------------3-----------|
E|---------------------------------------------1-----------|


[Chorus]

        C            G            Am           F          x5
e|-----------0------------3-----------0-------------1------|
B|--------2------------3-----------1-------------1---------|
G|------0-----------0------------2-------------2-----------|
D|---------------------------------------------------------|
A|---3-----------2------------0----------------------------|
E|----------------------------------------1----------------|
         C            G       F         (F)
e|----------0------------3----1----------------------------|
B|-------2------------3-------1----------------------------|
G|-----0------------0---------2----------------------------|
D|----------------------------3----------------------------|
A|--3------------2------------3----------------------------|
E|----------------------------1----------------------------|


[Solo 2]

e|-----8------------------8--10/12--10--8--|
B|--------8--8h10--8-----------------------|
G|-----------------------------------------|
D|-10-----------------10-------------------|
A|-----------------------------------------|
E|-----------------------------------------|

e|-----8------------------8--10/12--10--8--|
B|--------8--8h10--8--------------------8--|
G|--------------------------------------9--|
D|-10-----------------10---------------10--|
A|-----------------------------------------|
E|-----------------------------------------|


************************************

| h  Hammer-on
| p  Pull-off
| b  Bend
| /  Slide up 

************************************
Suggest correction
Creating personal tab
Creating personal tab
You can edit any tab online and save it as your Personal.

You can edit, replace or remove any tab part or add personal notes – all changes will be seen only by you.

Personal tabs can be accessed anytime from any device, even offline.
Learn more »
Give kudos to tab author, rate the tab!
1 2 3 4 5
comments
print report bad tab
guest
You may want to rate the tab now too:
select rating
Wanna post a correction for this tab? Suggest correction