Oops, an error
Loading. Please wait.

Blanca Navidad Tab

260 views 3 this week
no commentswrite comment
1 2 3 4 5
3 more votes to show rating
add to favorites
launch autoscroll
font size
0
reset
how to read this tab
guitar tuner
×
Best way to learn
"Blanca Navidad"
Autoscroll
slow
fast
+/-
esc
set tempo
stop
BLANCA NAVIDAD (MODERATTO)


   Oh!,blanca navidad
e -4~--6--5-----------------------------------------
B ------------1--2---4------------------------------
G --------------------------------------------------
D --------------------------------------------------
A --------------------------------------------------
E --------------------------------------------------

    Sueño. . . y con la nieve   alrededooor. . .
e --4---5------6--8--9-10--9-----8--6--4----------
B ------------------------------------------------
G ------------------------------------------------
D ------------------------------------------------
A ------------------------------------------------
E ------------------------------------------------

   blanca   es  mi  quimera
e ---------3--------4---5--------------------------
B -------------------------------------------------
G ---------------3---------------------------------
D -1---2-------------------------------------------
A -------------------------------------------------
E -------------------------------------------------

  y es mensajera      de  paaaaz?
e --3------------------------------------------------
B ------------3--4-----------------------------------
G ------5--4----------1------------------------------
D -------------------------2-------------------------
A ---------------------------------------------------
E ---------------------------------------------------

y de puro amoooor
e --3--------------------------------------------------
B -----2---3-------------------------------------------
G -------------2---------------------------------------
D ---------------------2-------------------------------
A -----------------------------------------------------
E -----------------------------------------------------

  Oh!, blanca navidad
e -4~-6--5-------------------------------------------
B ------------1---2---4------------------------------
G ---------------------------------------------------
D ---------------------------------------------------
A ---------------------------------------------------
E ---------------------------------------------------

nieve...  un blanco sueño y un cantar

e -3--4----3--4--5--7--5--5---3----1~~--------
B --------------------------------------------
G --------------------------------------------
D --------------------------------------------
A --------------------------------------------
E --------------------------------------------

recordar tu infancia podrás....
e ------------------------------------------
B ----------5---5--6---8---9----------------
G -1--4--4----------------------------------
D -----------------------------2-----1------
A ------------------------------------------
E ------------------------------------------

Al llegar la blanca navidad
e ---------------------------------------------
B ---------------------------------------------
G -------------3---5----4----------------------
D ---------------------------------------------
A -1--3--4---------------------3--4---6--------
E ---------------------------------------------


Solo

1:30
e -----------------------------------------------
B -3h5/6-5-3?---2/4~-6-5~~---1?2-4~~--3-4-2~-----
G -----------------------------------------------
D -----------------------------------------------
A -----------------------------------------------
E -----------------------------------------------

e --3---4----5---5/7--5----------5------3-------1~~~-
B ---------------------------------------------------
G ---------------------------------------------------
D ---------------------------------------------------
A ---------------------------------------------------
E ---------------------------------------------------

e --------------------------------------------
B --------5~~-5/6--8-9~-----------------------
G -1/4-4--------------------------------------
D --------------------------------------------
A -------------------------------------?------
E --------------------------------------------

e --------------------------------------------
B ---------10/11-11-11-11-11-11-11-11/13/12---
G --------------------------------------------
D --------------------------------------------
A -------------------------------------?------
E --------------------------------------------


e -13--12--11--10--9--6--3--1--3--6---9----------
B -----------------------------------------------
G -----------------------------------------------
D -----------------------------------------------
A -----------------------------------------------
E -----------------------------------------------

Segunda parte

   Oh!, blanca   navidad
e -4~----6-5---------------------------------------------
B --------------1--2---4---------------------------------
G -------------------------------------------------------
D -------------------------------------------------------
A -------------------------------------------------------
E -------------------------------------------------------

   Sueño. . . y  con la    nieve       alrededor. . .
e -3--4--------5--6---8----9-10--9-----8--6--4----------
B ------------------------------------------------------
G ------------------------------------------------------
D ------------------------------------------------------
A ------------------------------------------------------
E ------------------------------------------------------


  blanca  es   mi    quimera
e ---------3--------4---5-----------------------------
B ----------------------------------------------------
G ---------------3------------------------------------
D -1---2----------------------------------------------
A ----------------------------------------------------
E ----------------------------------------------------

     y es mensajera   de  paz?
e --3-------------------------------------------------
B ------------3--4------------------------------------
G ------5--4----------1-------------------------------
D -------------------------2--------------------------
A ----------------------------------------------------
E ----------------------------------------------------

    y   de  puro    amo00000r   uuuuuuu!!!!
e --3--------------------------------------------
B -----2---3-------------------------------------
G ------------------2----------------------------
D ---------------------2~~-----------------------
A -----------------------------------------------
E -----------------------------------------------


Yeah!!! Yeah!!! Ooho!!! Oohoho1 la blanca navidad
oooo!!!Nonon! Nonono!!!

Oh blanca navidad
e -4~-6--5-------------------------------------------
B ----------1---2---4--------------------------------
G ---------------------------------------------------
D ---------------------------------------------------
A ---------------------------------------------------
E ---------------------------------------------------

   nieve...  un blanco sueño y un cantar
e -3--4----3--4--5--7--5--5---3------1~~------------
B -------------------------------------------------
G -------------------------------------------------
D -------------------------------------------------
A --------------------------------------------------
E --------------------------------------------------

  recordar     tu infancia      podrás....
e ---------------------------------------------------
B ----------5---5--6---8---9-------------------------
G -1--4--4-------------------------------------------
D -----------------------------2-----1---------------
A ---------------------------------------------------
E ---------------------------------------------------

  Al llegar   la  blanca        navidad,
e ------------------------------------------------
B ------------------------------------------------
G -------------3---5----4-------------------------
D ------------------------------------------------
A -1--3--4p --------------------3--4---6----------
E ------------------------------------------------

blanca navidad!!!
 oOu  uuu ooooooooo auuu!!1 ouuu Ohohoho hoohoho ohohoho
auhhh ohohohoho ohohoh  uuuuuu yeah uuuuu
letras y música de esperanza sobre todo en épocas
navideñas;dedicado a  todos los que tienen corazón
de metal!!!!!!! Y pero sobre todo a los que tienen
un corazón que los hace ver, sentir  y hacer todo,
incluso aquello que se encuentra mas allá de toda posibilidad
tiempo-espacio-mente

un tributo a la banda mas grande del mundo,,, moderatto!!!!
obvio
don?t let rock die!!!!
Suggest correction
Give kudos to tab author, rate the tab!
1 2 3 4 5
comments
print report bad tab
guest
You may want to rate the tab now too:
select rating
Wanna post a correction for this tab? Suggest correction