Oops, an error
Loading. Please wait.

Chaperona Bass

59 views 3 this week
no commentswrite comment
1 2 3 4 5
3 more votes to show rating
add to favorites
launch autoscroll
font size
0
reset
guitar tuner
×
Best way to learn
"Chaperona"
Autoscroll
slow
fast
+/-
esc
set tempo
stop
Bueno esta canción esta muy chida y la verdad está muy sencilla,
les puse el orden para que le entiendan mejor...suerte!!!

 
  (1)
G|----------------------------------------|
D|----------------------------------------|
A|---------77----7----7---7-----777----7--| (x6)
E|--535300----0x---0x--00---000-----0x----|


  (2)
    0:41
G|-----------------------------------------------------5-5--7p5------|
D|-------------------------------5-555-555-555-55--7-7----------7p5--|
A|---------77----77----77----77--------------------------------------|
E|--535300----0x----0x----0x-----------------------------------------|


  (3)
G|--------------------------------------|
D|--------------------------------------|
A|-----777----7----7----7-----777----7--|
E|--00-----0x---0x---00---000-----0x----|


  (1)
G|----------------------------------------|
D|----------------------------------------|
A|---------77----7----7---7-----777----7--| (x2)
E|--535300----0x---0x--00---000-----0x----|


  (2)
    1:08
G|----------------------------------------------------55---7p5-------|
D|-------------------------------5-555-555-555-55--77-----------7p5--|
A|---------77----77----77----77--------------------------------------|
E|--535300----0x----0x----0x-----------------------------------------|


  (4)
G|---------------------------55---7p5-------|
D|------------------------77-----------7p5--|
A|-----777----7----7----7-------------------|
E|--00-----0x---0x---00---------------------|


  (3)
G|--------------------------------------|
D|--------------------------------------|
A|------77----7----7----7-----777----7--|
E|--00-----0x---0x---00---000-----0x----|


  (1)
G|----------------------------------------|
D|----------------------------------------|
A|---------77----7----7---7-----777----7--| (x2)
E|--535300----0x---0x--00---000-----0x----|


  (2)
    1:42
G|-----------------------------------------------------5-5--7p5------|
D|-------------------------------5-555-555-555-55--7-7----------7p5--|
A|---------77----77----77----77--------------------------------------|
E|--535300----0x----0x----0x-----------------------------------------|


  (3)
G|--------------------------------------|
D|--------------------------------------|
A|-----777----7----7----7-----777----7--|
E|--00-----0x---0x---00---000-----0x----|


  (5)                                               ~dejar sonar
G|-----------------------------------------------------------|
D|-----------------------------------------------------------|
A|-----------77----7----7----7-----777----7------------------|
E|--53-53-00----0x---0x---00---000-----0x---53-53--5~~~5~~~--|


Durante el requinto:           y después ésto:   
G|-------------------|         |-------------|
D|---7---------------|         |--999999999--|
A|-----77-55-55-7----| (x19)   |-------------| (x1)
E|-------------------|         |-------------|


  (3)
G|--------------------------------------|
D|--------------------------------------|
A|-----777----7----7----7-----777----7--|
E|--00-----0x---0x---00---000-----0x----|


  (1)
G|----------------------------------------|
D|----------------------------------------|
A|---------77----7----7---7-----777----7--| (x5)
E|--535300----0x---0x--00---000-----0x----|


   Final:
G|-----------------------------|
D|-----------------------------|
A|-----------------------------|
E|--53-53--53-53--5-5-5-5--0x--|
Suggest correction
Give kudos to tab author, rate the tab!
1 2 3 4 5
comments
print report bad tab
guest
You may want to rate the tab now too:
select rating
Wanna post a correction for this tab? Suggest correction