Oops, an error
Loading. Please wait.

Dame Un Beso Tab

57 views 1 this week
no commentswrite comment
1 2 3 4 5
3 more votes to show rating
add to favorites
launch autoscroll
font size
0
reset
how to read this tab
guitar tuner
Autoscroll
slow
fast
+/-
esc
set tempo
stop
Esta es una rola muy chida de la legendaria banda 
moderatto. aqui solo les presento el punteo que hacen 
casi al final de la rola que suena como a 'besos de 
cenisas' (que por cierto otro grupo les covereo esta 
cancion, como todas esas bandas o artistas que se 
hacen famosos  a las costillas de moderato)
Sin mas por el momento espero que les guste

Dame u beso........
E-----------------------------------------
B-----------------------------------------
G--5-5-7-7-8-8---5-5-7-7-8-8--------------
D-----------------------------------------
A-----------------------------------------
E-----------------------------------------
    
perdoname cariño....   
E-----------------------------------------
B-----------------------------------------
G--8-8-10-10--12-12---10-10-12-12-13-13---
D ----------------------------------------
A-----------------------------------------
E-----------------------------------------

Somos dos niños.....
E-----------------------------------------
B-----------------------------------------
G--5-5-7-7-8-8---5-5-7-7-8-8--------------
D-----------------------------------------
A-----------------------------------------
E-----------------------------------------

y en paz...........
E--------------7-7-7-8-7------------------
B--8-8-8-9-8------------------------------
G-----------------------------------------
D-----------------------------------------
A-----------------------------------------
E-----------------------------------------


Dame u beso........
E-----------------------------------------
B-----------------------------------------
G--5-5-7-7-8-8---5-5-7-7-8-8--------------
D-----------------------------------------
A-----------------------------------------
E-----------------------------------------
    
Despues de hacer....   
E-----------------------------------------
B-----------------------------------------
G--8-8-10-10--12-12---10-10-12-12-13-13---
D ----------------------------------------
A-----------------------------------------
E-----------------------------------------

Es increible que .....
E-----------------------------------------
B-----------------------------------------
G--5-5-7-7-8-8---5-5-7-7-8-8--------------
D-----------------------------------------
A-----------------------------------------
E-----------------------------------------
Suggest correction
Give kudos to tab author, rate the tab!
1 2 3 4 5
comments
print report bad tab
guest
Wanna post a correction for this tab? Suggest correction