Oops, an error
Loading. Please wait.

Ghostbusters Tab

125 views 1 this week
no commentswrite comment
1 2 3 4 5
3 more votes to show rating
add to favorites
launch autoscroll
font size
0
reset
how to read this tab
guitar tuner
Autoscroll
slow
fast
+/-
esc
set tempo
stop
Help us to improve Ultimate-Guitar.com Take our survey!
×
En esta rola se le baja a tu lira en la ultima cuerda(6)dos tonos. 
ojala y les guste nomas es cosa de entenderle  para 
el patas locas, avelardo.
"""""no vemos en el infierno""""""" """"""aaaaauuuuuuuuuu""""".

intro:
1|------------------------------------|
2|------------------------------------|
3|------------------------6/----------|
4|-----------8-7-6-5------------------|
5|---5--------------------------------|
6|------------------------------------|

......esto biene siendo el veso:
|-------------------------------------|
|-------------------------------------|
|-------------------------------------|
|-0-0------------0-0------------------|   x8
|-0-0-x-x-3--2---0-0-x-x-3-3-2--------|
|-0-0------------0-0------------------|

|--------------------------------------|        |
|--------------------------------------|        |
|--------------------------------------|        |
|--------------------------------------|   x4   |
|-8--5--8--5--8--5--8--5----8-5-2-3-5--|        |
|--------------------------------------|        |
                                                |
otra guitarra hace esto                         |
|--------------------------------------|        |
|--------------------------------------|        |
|-7---------5---------4----------------|        |
|-7---------5---------4-------5--------|   x2   |
|-5---------3---------2-------5--------|        |
|-----------------------------5--------|        |


|-------------------------------------|
|-------------------------------------|
|-------------------------------------|
|-0-0------------0-0------------------|   x6
|-0-0-x-x-3--2---0-0-x-x-3-3-2--------|
|-0-0------------0-0------------------|

|--------------------------------------|        |
|--------------------------------------|        |
|--------------------------------------|        |
|--------------------------------------|   x4   |
|-8--5--8--5--8--5--8--5----8-5-2-3-5--|        |
|--------------------------------------|        |
                                                |
otra guitarra hace esto                         |
|--------------------------------------|        |
|--------------------------------------|        |
|-7---------5---------4----------------|        |
|-7---------5---------4-------5--------|   x2   |
|-5---------3---------2-------5--------|        |
|-----------------------------5--------|        |

|-------------------------------------|
|-------------------------------------|
|-------------------------------------|
|-0-0------------0-0------------------|   x4
|-0-0-x-x-3--2---0-0-x-x-3-3-2--------|
|-0-0------------0-0------------------|


|----------------------------|
|----------------------------|
|---7\5----------------------|
|---7\5-------0-0------------|  x3
|---5\3-------0-0------------|
|-------------0-0------------|

|-----------|
|-----------|
|---7\5-----|
|---7\5-----|
|---5\3-----|
|-----------|

|---------------|
|--------5-4----|
|--------5-4----|
|--0-0---3-2----|  x4
|--0-0----------|
|--0-0----------|

|---------------------------|
|---------------------------|
|----------------5-4--------|
|----7-7-7-7-7---5-4---5----|   x4
|----7-7-7-7-7---3-2---5----|
|----5-5-5-5-5---------5----|


|--------------------------------------|        
|--------------------------------------|        
|--------------------------------------|        
|--------------------------------------|   x4   
|-8--5--8--5--8--5--8--5----8-5-2-3-5--|        
|--------------------------------------|     

|-------------------------------------|
|-------------------------------------|
|-------------------------------------|
|-0-0------------0-0------------------|   x10
|-0-0-x-x-3--2---0-0-x-x-3-3-2--------|
|-0-0------------0-0------------------|

creo que esta bien sino mandeme un correo , haa y el solo luego 
lo mandare
Suggest correction
Give kudos to tab author, rate the tab!
1 2 3 4 5
comments
print report bad tab
guest
You may want to rate the tab now too:
select rating
Wanna post a correction for this tab? Suggest correction