Oops, an error
Loading. Please wait.

Jingle Bells Tab

162 views 1 this week
no commentswrite comment
1 2 3 4 5
3 more votes to show rating
add to favorites
launch autoscroll
font size
0
reset
how to read this tab
guitar tuner
×
Best way to learn
"Jingle Bells"
Autoscroll
slow
fast
+/-
esc
set tempo
stop
1er Solo

Realmente llevo poco tiempo tocando la guitarra y este es mi primer tab.
Siempre quise tocar esta cancion pero no hay tabs de ella en ningun lugar.
Asi q me puse a sacar el primer solo de la cancion y lo puse para
incentivar a los demas a escribir toda la cancion y a enviarme sus
correcciones pues es lo mejor q pude sacar, espero q les guste alli les va:

Standard Tuning
|-E-|
|-B-|
|-G-|
|-D-|
|-A-|
|-E-|

2:01
||----------------------------------------------||
||-----------6----------------------------------||
||---5/7-7--7-7---------------------------------||
||------------------5-3-5p3----3-5p3---3-3------||
||---------------------------5-------5-----5----||
||----------------------------------------------||


||----------------------------------------------||
||------------------------------^6------6-6-----||
||------------------------5-7-------7-------7---||
||------------3-----3-5-7-----------------------||
||---5-3----------------------------------------||
||-------5-3------------------------------------||


||---/14---15-14----------17---------------------------------||
||---------------17-15-^17---17-15-^17-17-^17-17-^17-17-^17--||
||-----------------------------------------------------------||
||-----------------------------------------------------------||
||-----------------------------------------------------------||
||-----------------------------------------------------------||


||-----------------------------------------------------------||
||-----10-13p10*---------------------------------------------||
||-*^12--------------^12--10---10---------------------10-----||
||--------------------------12------12-10-12----10-12----12--||
||-----------------------------------------------------------||
||-----------------------------------------------------------||

** Hay que repetir lo que esta dentro de los asteriscos varias veces
   incrementando la velocidad.
(Hay que escuchar la cancion para agarrarle el ritmo a esta parte.)

Cualquier pregunta corrección o insulto mandar a elbuqui06@
espero q esto motive a los demas a poner el tab de la cancion completa
para rockear esta navidad!
Suggest correction
Give kudos to tab author, rate the tab!
1 2 3 4 5
comments
print report bad tab
guest
You may want to rate the tab now too:
select rating
Wanna post a correction for this tab? Suggest correction