Oops, an error
Loading. Please wait.

Los Cazafantasmas Bass

29 views 1 this week
no commentswrite comment
1 2 3 4 5
3 more votes to show rating
add to favorites
launch autoscroll
font size
0
reset
guitar tuner
×
Best way to learn
"Los Cazafantasmas"
Autoscroll
slow
fast
+/-
esc
set tempo
stop
Una excelente canción de ""MODERATTO"" AAAAUUUUUUUU!!!!!
Que se escuche duro el rock!!!  ¡¡¡EL DETECTOR DE METAL!!!
Dedicada para todos aquellos q les gusta el rock de Moderatto!!!

   0:14
G|-------------------|----------------------|
D|-------0-4-7--10-9-|------0-4-7--10-10-99-|
A|---5-5-------------|--5-5-----------------|
E|-------------------|----------------------|

    0:47
E|-------------------|
D|-------------------|
A|---5--3--2---------| (X2)
E|------------3------|

    1:04
G|-------------------|----------------------|
D|-------0-4-7--10-9-|------0-4-7--10-10-99-|
A|---5-5-------------|--5-5-----------------|
E|-------------------|----------------------|

   1:29
G|-------------------|
D|-------------------|
A|---5--3--2---------| (X2)
E|------------3------|

    1:45
G|-------------------|----------------------|
D|-------0-4-7--10-9-|------0-4-7--10-10-99-|
A|---5-5-------------|--5-5-----------------|
E|-------------------|----------------------|

    2:02
G|------------------------|
D|------------------------|
A|--5--3~~------5--3~~----| (X2)
E|--------00----------00--|

    2:10
G|------------------------|
D|------------------------|
A|--5--3~~------5--3~~----| (X1)
E|--------00--------------|

   Sólo del Bajo:
    2:18
G|-------------------|----------------------|
D|-------0-4-7--10-9-|------0-4-7--10-10-99-|
A|---5-5-------------|--5-5-----------------|
E|-------------------|----------------------|

    2:35
G|-----------------------|
D|-----------------------|
A|-00000-3333-2222-------| (X2)
E|-----------------3333--|

    2:43
G|----------------------|
D|------7777-6666-------|
A|-0000-----------7777--|  (X2)
E|----------------------|

    2:52
G|-------------------|
D|-------------------|
A|---5--3--2---------|   (X2)
E|------------3------|

    3:08 ( Así hasta el final...)
G|-------------------|----------------------|
D|-------0-4-7--10-9-|------0-4-7--10-10-99-|
A|---5-5-------------|--5-5-----------------|
E|-------------------|----------------------|


****+++++++++****++++++++++****++++++****+++++++++****+++++++++****

Las partes que les marco a continuación también pueden ser tocadas 
de la siguiente manera:

     0:14 
     1:04
     1:45
     2:18 (sólo del bajo)
     3:08
G|--------------5-4--|-------------55-44----|
D|-------0-4-7-------|------0-4-7-----------|
A|---5-5-------------|--5-5-----------------|
E|-------------------|----------------------|
Suggest correction
Give kudos to tab author, rate the tab!
1 2 3 4 5
comments
print report bad tab
guest
You may want to rate the tab now too:
select rating
Wanna post a correction for this tab? Suggest correction