Oops, an error
Loading. Please wait.

Me Caes Perfecto Tab

172 views 1 this week
no commentswrite comment
1 2 3 4 5
3 more votes to show rating
add to favorites
launch autoscroll
font size
0
reset
how to read this tab
guitar tuner
Autoscroll
slow
fast
+/-
esc
set tempo
stop
Help us to improve Ultimate-Guitar.com Take our survey!
×
F G Em Am x2

F          G              Em             Am
 Me desperté pensando en tí, soñarte es mi mayor placer,
F              G            Em              Am
 saber que al fin te encontré, y no es tan fácil de creer.

F        G            Em           Am
 Te conocí, todo cambió, me muero por decírtelo,
F              G             Em           Am
 que no es normal ser tan feliz, te juro yo no era así.

G        Am         F      G       Am            F
 Es increible como sucedió, nunca cambies por favor.

F           G               Em              Am
 Me haces reir, me haces soñar, me caes perfecto,
F         G        Em                        Am
 es de manera natural, no te encuentro un defecto.
F          G               Em              Am
 Con tus amigos salgo a fumar, me caen perfecto,
F        G          Em             Am
 y para mi eres genial, obvio te quiero.

    (Solo)

e|-----------------|
B|-----------------|
G|-----------------|
D|-----------------|
A|-8-8-8-7-5-------|
E|-----------7-7-7-|

e|-------------------------|
B|-------------------------|
G|-------------------------|
D|-------------------------|
A|-----5-7-7-7-5-----------|
E|-7-7-----------7-8-7-5-3-|

e|-----------------|
B|-----------------|
G|-----------------|
D|-----------------|
A|-8-8-8-7-5-------|
E|-----------7-7-7-|

e|-------------------------|
B|-------------------------|
G|-------------------------|
D|-------------------------|
A|-----5-7-7-7-5-----------|
E|-7-7-----------7-8-7-5-3-|


F       G             Em          Am
 Descubrí que tu también sentias lo mismo que yo,
F         G           Em          Am
 es lo mejor verte venir, sabía que eras para mí.

G        Am         F      G       Am            F
 Es increible como sucedió, nunca cambies por favor.

F           G               Em              Am
 Me haces reir, me haces soñar, me caes perfecto,
F         G        Em                        Am
 es de manera natural, no te encuentro un defecto.
F          G               Em              Am
 Con tus amigos salgo a fumar, me caen perfecto,
F        G          Em             Am
 y para mi eres genial, obvio te quiero.

e|----------|---------------|
B|----------|---------------|
G|----------|---------------|
D|----------|---------------|
A|-8--7-5---|-7-5-----------|
E|--------7-|-----7-8-7-5-3-|

e|----------|-------------|
B|----------|-------------|
G|----------|-------------|
D|----------|-------------|
A|-8--7-5---|-7-5---------|
E|--------7-|-----7-8-7-5-|

F           G               Em              Am
 Me haces reir, me haces soñar, me caes perfecto,
F         G        Em                        Am
 es de manera natural, no te encuentro un defecto.
F          G               Em              Am
 Con tus amigos salgo a fumar, me caen perfecto,
F        G          Em              Am
 y para mi eres genial, me caes perfecto.

e|-----------------|
B|-----------------|
G|-----------------|
D|-----------------|
A|-8-8-8-7-5-------|
E|-----------7-7-7-|

e|-------------------------|
B|-------------------------|
G|-------------------------|
D|-------------------------|
A|-----5-7-7-7-5-----------|
E|-7-7-----------7-8-7-5-3-|

F           G               Em              Am
 Me haces reir, me haces soñar, me caes perfecto,
F         G        Em                        Am
 es de manera natural, no te encuentro un defecto.
F          G               Em              Am
 Con tus amigos salgo a fumar, me caen perfecto,
F        G          Em              Am
 y para mi eres genial, me caes perfecto.
Suggest correction
Give kudos to tab author, rate the tab!
1 2 3 4 5
comments
print report bad tab
guest
You may want to rate the tab now too:
select rating
Wanna post a correction for this tab? Suggest correction