Oops, an error
Loading. Please wait.

No Me Canso De Rockear Chords

17 views 1 this week
no commentswrite comment
1 2 3 4 5
3 more votes to show rating
add to favorites
launch autoscroll
font size
0
reset
transpose
0
reset
simplify chords
display chords
guitar tuner
×
Best way to learn
"No Me Canso De Rockear"
Autoscroll
slow
fast
+/-
esc
set tempo
stop
Esta es una muy buena rola de los señores de modratto
y se la dedico a toda la banda k sepa k:
"es rock es un deporte¡practicalo!"


***En las partes donde pongo asi(d5)es por k
Re solo se tornea ***
E-------- ---------
A----x---------x---
D----7-7--7--7-----
G----7-7--7--7-----
B------------------
e------------------
***Y asi en las partes donde no lo lleva***

E--------3--5--x-x-x-----------------
A-----3--5--7--x-x-x--5-5-5----------
D-----5--5--7--x-x-x--7-7-7----------
G-----5---------------7-7-7----------
B------------------------------------
e------------------------------------


C5-G5-A5-(D5)

C5  G5  A5           D5           C5-G5-A5-D5

yo soy rocko en cuerpo y alma

C5 G5     A5         D5           C5-G5-A5-D5

todo el tiempo toco mi guitarra


C5 G5   A5             D5           C5-G5-A5-D5
no me pierdo ni un solo concierto


C5     G5 A5     D5            C5-G5 -A5
ni tampoco un solo video

                            E------3--5-5---5~---------    *(en esta
                            A---3--5--7-7---5~---------     parte se
                            D---5--5--7-7---7~---------     hace asi)
                            G---5----------------------
                            B--------------------------
                            e--------------------------

      C5-G5-A5-(D5)  X2
hau hau


C5  G5  A5           D5           C5-G5-A5-D5
quiero cantarle a toda la gente


C5       G5  A5           D5           C5-G5-A5-D5
y darles mi música y mi corazón


   C5    G5            A5          D5           C5-G5-A5-D5

roquero yo siempre he sido y lo seré


C5         G5    A5            D5           C5-G5-A5
con mi rock por todo el mundo viajare


                    C5

no me canso de roquear


G5  A5         (D5)       C5
cantando siento yo vibrar


G5   A5       (D5)          C5
al tocarlo quiero yo bailar


  G5    A5     (D5)            C5
al escucharlo siento como me prendo


G5  A5              (D5)        A5
de casetts y discos colección tengo


   C5-D5
tengo  hauu


(solo)


       C5          G5   A5  (D5)
no me canso de roquear


       C5    G5  A5   (D5)
ni tampoco de tocar


      C5    G5  A5     (D5)
no no no no no no huo


   C5      G5  A5   (D5)
quiero bailar


  C5    G5  A5  (D5)
hie hiea hiea


    C5 G5  A5

E------3--5-5---5~---------
A---3--5--7-7---5~---------
D---5--5--7-7---7~---------
G---5----------------------
B--------------------------
e--------------------------


ps esto es todo y ya saben k cualkier duda,aclaracion,
invitacion a comer,tablatura,amenaza de muerte,correccion,
fotografias, fotografias de sus hermanas en tanga,etc.
no duden en enviarmelas a :
                            rocko_k2@

*y cualkier otra rola k kieran ¡escribanme!
Suggest correction
Give kudos to tab author, rate the tab!
1 2 3 4 5
comments
print report bad tab
guest
You may want to rate the tab now too:
select rating
Wanna post a correction for this tab? Suggest correction