Oops, an error
Loading. Please wait.

Ojo Del Tigre Tab

124 views 1 this week
no commentswrite comment
1 2 3 4 5
3 more votes to show rating
add to favorites
launch autoscroll
font size
0
reset
how to read this tab
guitar tuner
×
Best way to learn
"Ojo Del Tigre"
Autoscroll
slow
fast
+/-
esc
set tempo
stop
Este es el intro:

    E5   D5                        C5
e-/----------------------------------------
B-/-5--5--3--5----5--3--5----5--3----------
G-/-4--4--2--4----4--2--4----4--2--5-------
D-/-2--2--0--2----2--0--2----2--0--5-------
A-/--------------------------------3-------
E-/----------------------------------------


Esta es la mejor parte, Crees en el metal? Si creo....


e-/-------------------------------------------------------
B-/-------------------------------------------------------
G-/-9-9-9-9-9-9-9-9-9-9-9-9--5-5-5-5-5-5-5-5-5-5/12-9-----
D-/-9-9-9-9-9-9-9-9-9-9-9-9--5-5-5-5-5-5-5-5-5-5/12-9-----
A-/-7-7-7-7-7-7-7-7-7-7-7-7--3-3-3-3-3-3-3-3-3-3/10-7-----
E-/-------------------------------------------------------


Mas metal? Mas metal...


e-/----------------------------------------
B-/----------------------------------------
G-/----------------------------------------
D-/----------------------7-7-7-9-9-10-10---
A-/-7-7-7-9-9-9-10-10-10-------------------
E-/----------------------------------------

e-/----------------------------------------
B-/----------------------------------------
G-/----------------------------------------
D-/----------------------------------------
A-/----------------------------------------
E-/-8-8-8-7-7-7-5-5-5-3-3-3-1-1-0-0--------


Acaba:

e-/-------------------------------------
B-/----------------------5--5--3--------
G-/---------------9-9/---4--4--2--5-----
D-/---------------9-9/---2--2--0--5-----
A-/-3-2-0---------7-7/------------3-----
E-/-------3-1-0-------------------------


Tengo el tab completo (incluyendo el solo), pero tengo poco
tiempo) asi que luego lo subo cuando tenga ganas, si no me
escriben al chilagre@ y se los envio.
Suggest correction
Give kudos to tab author, rate the tab!
1 2 3 4 5
comments
print report bad tab
guest
You may want to rate the tab now too:
select rating
Wanna post a correction for this tab? Suggest correction