Oops, an error
Loading. Please wait.

Quiero Rock & Roll Bass

35 views 1 this week
no commentswrite comment
1 2 3 4 5
3 more votes to show rating
add to favorites
launch autoscroll
font size
0
reset
guitar tuner
×
Best way to learn
"Quiero Rock & Roll"
Autoscroll
slow
fast
+/-
esc
set tempo
stop
HOLA A TODOS, ESPERO QUE LES HAYAN GUSTADO LAS OTRAS CANCIONES QUE HE MANDADO
AQUÍ LES DEJO OTRA DE ESTA SUPER BANDA LLAMADA ¡¡¡MODERATTO!!! DISFRUTENLA
DEDICADA PARA TODOS LOS CUATES...


   CORO:
G|-----------------------------------------------------|
D|-----------------------------------------------------|
A|--55-55--8--10-10-12-12--8--55-55--8--10-10-12-8-55--| 
E|-----------------------------------------------------|


                   VERSO:
G|-----7p5-------|--------7p5-------|-----------7p5-------|
D|---------7-5/3-|------------7-5/3-|---------------7-5/3-|
A|--55-----------|--55-55-----------|--55-12-12-----------|
E|---------------|------------------|---------------------|


                       ~~mantener sonando
G|-------------------------------------------------|
D|-------------------------------------------------|
A|--10-10--12-12-55--10~~~~~--12-12-12-12-12-12-12-|
E|-------------------------------------------------|


   CORO:
G|-----------------------------------------------------|
D|-----------------------------------------------------|
A|--55-55--8--10-10-12-12--8--55-55--8--10-10-12-8-55--| 
E|-----------------------------------------------------|


                  VERSO:
G|-----7p5-------|--------7p5-------|-----------7p5-------|
D|---------7-5/3-|------------7-5/3-|---------------7-5/3-|
A|--55-----------|--55-55-----------|--55-12-12-----------|
E|---------------|------------------|---------------------|


                       ~~mantener sonando
G|-------------------------------------------------|
D|-------------------------------------------------|
A|--10-10--12-12-55--10~~~~~--12-12-12-12-12-12-12-|
E|-------------------------------------------------|


   CORO:
G|-----------------------------------------------------|
D|-----------------------------------------------------|
A|--55-55--8--10-10-12-12--8--55-55--8--10-10-12-8-55--| 
E|-----------------------------------------------------|


                   Durante el solo de guitarra:
G|-----7p5-------|---------7P5-------------------7P5-------|------------------------|
D|---------7-5/3-|-------------7-5/3-----------------7-5/3-|------------------------|
A|--55-----------|--55--55-------------55--12-12-----------|-10-10-12-12-55-10-10~~~|
E|---------------|-----------------------------------------|------------------------|


******************************AQUÍ NO HAY BAJO ************************************


   CORO: 
G|-----------------------------------------------------|
D|-----------------------------------------------------|
A|--55-55--8--10-10-12-12--8--55-55--8--10-10-12-8-55--| (X4)
E|-----------------------------------------------------|
Suggest correction
Give kudos to tab author, rate the tab!
1 2 3 4 5
comments
print report bad tab
guest
You may want to rate the tab now too:
select rating
Wanna post a correction for this tab? Suggest correction