Oops, an error
Loading. Please wait.

Quiero Rock'n Roll Chords

version 1
version 1

Whole song

28 views 1 this week
no commentswrite comment
1 2 3 4 5
3 more votes to show rating
add to favorites
launch autoscroll
font size
0
reset
transpose
0
reset
display chords
guitar tuner
Autoscroll
slow
fast
+/-
esc
set tempo
stop
Strumming
There is no strumming pattern for this song yet. and get +5 IQ
Intro:
e----------------------------------------------
B----------------------------------------------
G-------------------2-2---4-4------------------      (x 2)
D-2-2---2-2---------2-2---4-4------------------
A-2-2---2-2---------0-0---2-2------------------
E-0-0---0-0---0/3--------------0/3-------------


EmEm                        EmEm
Vi pasar a la mas reina del lugar
EmEm                            AA                     E--------------
Seguro que esa chiquilla era menor de edad                  B--------------
AA            TT         EmEm           A              T=        G----4---------
Ven A E lugar se que te va a encantar                  D----4---------
                                          A----2---------
Me dijo: yo, si tu                               E--------------

Vamos a mi lugar,
         AAAAAAA
Le dije si tu y yo

Coro:
EmEm                 EmEm
Quiero rock & roll 
AA                    TT
échale otro peso a la rocola nena
EmEm          EmEm
Quiero rock & roll 
AA                    T(al aire)Em
échale otro peso y vamos a roquear.

EmEm                              EmEm
La encontre en un reven a todo dar
EmEm                                    AA
Después de un par de chelas la empese a cotorrear
AA            TT
Sexo, bug y rock & roll 
EmEm            A
Y rolas del trisol

(Coro)

[Solo]  opcional y se toca con los tonos de la primera estrofa 
yo lo invente nomas que me dio hueva ponerlo INVENTALO

Me dijo: yo, si tu 
Ven a mi lugar,
Le dije si tu y yo.  Sigue!

(Coro)todos (sin guitarras)
(coro)todos 
(coro)
(Coro)todos
(coro)
(coro)Todos (sin instrumentos) con aplausos manteniendo un ritmo

La T es un tono que yo invente (no existe) porque solo se le parecia Bm 
pero no me gustaba como sonaba con ese asi que por eso invente este tono.

Tambien en la cancion ahí un arreglillo tipo requinto que se puede tocar 
de varias formas pero suena mejor esta:

 
e---12--10--------------                   
B----------12--10-------     (esta mejor esta)
G------------------12---    
D-----------------------
A-----------------------
E-----------------------
            O tambien
e-5--3------------------
B-------5--3------------
G-------------0---------
D-----------------------
A-----------------------
E-----------------------
Suggest correction
Give kudos to tab author, rate the tab!
1 2 3 4 5
comments
print report bad tab
guest
Wanna post a correction for this tab? Suggest correction