Oops, an error
Loading. Please wait.

Quiero Rock'n Roll Tab

10 views 1 this week
no commentswrite comment
1 2 3 4 5
3 more votes to show rating
add to favorites
launch autoscroll
font size
0
reset
how to read this tab
guitar tuner
Autoscroll
slow
fast
+/-
esc
set tempo
stop
Help us to improve Ultimate-Guitar.com Take our survey!
×
Que onda todos, pues esta es la primera rola que mando,
 pues el otro tab estan mal las notas... Por cierto, 
la lira original tiene la 6ª cuerda afinada en re,
aunque mi tab esta con afinación normal), solo falta 
el bajo del re, asi que no es muy importante...

Intro:

  D D   D D   F   G G   A A   F   D   
e-------------------------------------------
B-------------------------------------------
G-------------------------------------------
D-0-0---0-0---3---5-5---7-7---3---0-0-------
A-0-0---0-0---3---5-5---7-7---3---0-0-------
E-------------1---3-3---5-5---1-------------

  
  D D   D D   F   G G   A   F   D
e-------------------------------------------
B-------------------------------------------
G-------------------------------------------
D-0-0---0-0---3---5-5---7---3---0~----------
A-0-0---0-0---3---5-5---7---3---0~----------
E-------------1---3-3---5---1---------------

             |        RIFF 1         |
  D D   D D  |                       |
e-----------||--10p8-----------------||
B-----------||-------10-8------------||
G-----------||------------10---------||
D-0-0---0-0-||-----------------------||
A-0-0---0-0-||-----------------------||
E-----------||-----------------------||


D5 D5                        D5 D5    Riff 1
Vi pasar a la mas reina del lugar
D5 D5                            A5 A5   Riff 1               
Seguro que esa chiquilla era menor de edad                  
G5 G5           A5 A5   D5 D5          G5
Ven a mi lugar se que te va a encantar                  
                                          
Me dijo: yo, si tu                               

Vamos a mi lugar,
         AAAAAAA
Le dije si tu y yo

Coro: (es lo mismo del intro, pero de todos modos ahi van las notas)

D5 D5          D5 D5  F5  
Quiero rock & roll 
G5 G5                  A5 A5        F5
échale otro peso a la rocola nena
D5 D5          D5 D5  F5
Quiero rock & roll 
G5 G5                    A5 F5 D5
échale otro peso y vamos a roquear.

             |        RIFF 1         |
  D D   D D  |                       |
e-----------||--10p8-----------------||
B-----------||-------10-8------------||
G-----------||------------10---------||
D-0-0---0-0-||-----------------------||
A-0-0---0-0-||-----------------------||
E-----------||-----------------------||


D5 D5                          D5 D5    Riff 1
La encontre en un reven a todo dar
D5 D5                                    A5 A5   Riff 1
Después de un par de chelas la empese a cotorrear
G5 G5                 A5 A5    D5 D5       G5
Sexo, bug y rock & roll, y rolas del trisol

Me dijo: yo, si tu                               

Ven a mi lugar,
         AAAAAAA
Le dije si tu y yo


(Coro)

D5 D5          D5 D5  F5  
Quiero rock & roll 
G5 G5                  A5 A5        F5
échale otro peso a la rocola nena
D5 D5          D5 D5  F5
Quiero rock & roll 
G5 G5                    A5 F5 D5
échale otro peso y vamos a roquear.

             |        RIFF 1         |
  D D   D D  |                       |
e-----------||--10p8-----------------||
B-----------||-------10-8------------||
G-----------||------------10---------||
D-0-0---0-0-||-----------------------||
A-0-0---0-0-||-----------------------||
E-----------||-----------------------||

SOLO: Aqui es a dos liras; el acompañamiento es lo
 mismo de los versos. La lira del solo es asi:


e||-----------------||
B||-----------------||
G||-----------------||
D||-0-0--0-0h3-3p0--||
A||-0-0--0----------||
E||-----------------||

e||-------------------------------------
B||---------------10------9-------------
G||-----7-9--9^11----9^11----9^r-p-7h9^-
D||-7/9---------------------------------
A||-------------------------------------
E||-------------------------------------

e||-----------------------------
B||---8-9-10-10-----------------
G||-9-----------9p8p7-9---7\(0)-
D||---------------------9-------
A||-----------------------------
E||-----------------------------

e||-------------------------------------------------
B||-------------------------------------------------
G||-------------------------------------------------
D||-(7)/9-9-9\7-7-7-7\5-5-5-5\4-4-4-4\2-2-2-2p0-0-0-
A||-------------------------------------------------
E||-------------------------------------------------

e||-------------
B||-------------
G||-------------
D||-------0-3p2~
A||-0-2h5-------
E||-------------

Me dijo: yo, si tu 
Ven a mi lugar,
Le dije si tu y yo.  Sing it!

-Coro (pura bataca)
-Termina con 4 veces el coro, y la quinta es con puros
 aplausos.

Pues eso es todo, esta facilona... 
Saludos a toda la banda Black Soul (Chava, Quecsos,
 Alan y Marlon),y pues a darle porque se enfria!! =)
Suggest correction
Give kudos to tab author, rate the tab!
1 2 3 4 5
comments
print report bad tab
guest
You may want to rate the tab now too:
select rating
Wanna post a correction for this tab? Suggest correction