Oops, an error
Loading. Please wait.

Si Mi Delito Es Rockear tab

version 1
version 1

Whole song

Interactive

9,133 views 6 this week
no commentswrite comment
1 2 3 4 5
2 more votes to show rating
add to favorites
×
Save as Personal and add changes to this tab that will be seen only by you. Learn more ›
×
You can save this tab as Personal to edit and correct it or add notes. All changes will be seen only by you. Learn more »
launch autoscroll
font size
0
reset
how to read this tab
guitar tuner
edit
Autoscroll
slow
fast
+/-
esc
set tempo
stop
Author
 D         A         B         G     A
e|------------------------------------------|
B|------------------------------------------|
G|---7-9-7-----7-9-7-----7-9-7--------------|
D|--7-7-7-7---7-7-7-7---7-7-7-7--5-5-X-5-5--|
A|-5-----------------------------5-5-X-5-5--|
E|-----------5---------7---------3-3-X-3-3--|
 GUITAR 2                               |
e|------------------------------------------|
B|------------------------------------------|
G|------------------------------------------|
D|-------------------------------5-5-X-5-5--|
A|-------------------------------5-5-X-5-5--|
E|-------------------------------3-3-X-3-3--|

<><><><><><><><><><><><><><><><><><><><><><><><>
                    VERS
<><><><><><><><><><><><><><><><><><><><><><><><>

  GUITAR 1
  (0:14)
   D         A         B         G
e|-----------------------------------------|
B|-----------------------------------------|
G|---7-9-7-----7-9-7-----7-9-7-----7-9-7---|
D|--7-7-7-7---7-7-7-7---7-7-7-7---7-7-7-7--| X2
A|-5---------------------------------------|
E|-----------5---------7---------3---------|

  GUITAR 2
e|---------------------------------------------|
B|----------------------------------------7----|
G|--7-7-9-9-7--7-7-9-9-7--7-7-9-9-7--7-7-9-9-7-|
D|--7-7-7-7-7--7-7-7-7-7--7-7-7-7-7--7-7-------| X2
A|---------------------------------------------|
E|---------------------------------------------|
    . . . . .  . . . . .  . . . . .  . .

<><><><><><><><><><><><><><><><><><><><><><><><>
                  PRE-CHORUS
<><><><><><><><><><><><><><><><><><><><><><><><>

  GUITAR 1
  (0:28)
   G         A         B         D
e|-----------------------------------------|
B|-----------------------------------------|
G|---7-9-7-----7-9-7-----7-9-7-----7-9-7---|
D|--7-7-7-7---7-7-7-7---7-7-7-7---7-7-7-7--|
A|-------------------------------5---------|
E|-3---------5---------7-------------------|

  (0:35)
   G         A                        D
e|----------------------------------------|
B|----------------------------------------|
G|---7-9-7-----7-9-7------------------7---|
D|--7-7-7-7---7-7-7-7-----------------7---|
A|------------------------5------5----5---|
E|-3---------5----------3---3--2---2------|

  GUITAR 2
  (0:28)
e|------------------------------------------|
B|------------------------------------------|
G|-7-7--797-7-7--797-7-7--797--7X-9X-11X-9X-|
D|-7-7--777-7-7--777-7-7--777--7X-7X-7X--7X-|
A|------------------------------------------|
E|------------------------------------------|

  (0:35)
e|----------------------------------------|
B|----------------------------------------|
G|-7-7--797-7-7--797----------------7-----|
D|-7-7--797-7-7--797----------------7-----|
A|----------------------5------5----5-----|
E|--------------------3---3--2---2--------|

<><><><><><><><><><><><><><><><><><><><><><><><>
                      CORO
<><><><><><><><><><><><><><><><><><><><><><><><>
  GUITAR 1
  (0:42)
   G         A         B    A    G        G
e|------------------------------------------|
B|------------------------------------------|
G|---7-9-7-----7-9-7-----7----7----7-9-7----|
D|--7-7-7-7---7-7-7-7---7-7--7-7--7-7-7-7-5-|
A|----------------------------------------5-|
E|-3---------5---------7----5----3--------3-|
 |GUITAR 2                                |
e|------------------------------------------|
B|------------------------------------------|
G|------------------------------------------|
D|-5~--------7~--------9----7----5~-------5-|
A|-5~--------7~--------9----7----5~-------5-|
E|-3~--------5~--------7----5----3~-------3-|

  GUITAR 1
  (0:50)
e|---------------------------|
B|---------------------------|
G|----------------------7----|
D|--7-------------------7----|
A|--7------5------5-----5----|
E|--5----3---3--2---2--------|
 |GUITAR 2                 |
e|---------------------------|
B|---------------------------|
G|----------------------7----|
D|--7-------------------7----|
A|--7------5------5-----5----|
E|--5----3---3--2---2--------|


<><><><><><><><><><><><><><><><><><><><><><><><>
                      PUENTE
<><><><><><><><><><><><><><><><><><><><><><><><>

  GUITAR 1
  (0:56)
   D         A         B         G
e|-----------------------------------------|-------------|
B|-----------------------------------------|-------------|
G|---7-9-7-----7-9-7-----7-9-7-----7-9-7---|-------------|
D|--7-7-7-7---7-7-7-7---7-7-7-7---7-7-7-7--|--5-5-X-5-5--|
A|-5---------------------------------------|--5-5-X-5-5--|
E|-----------5---------7---------3---------|--3-3-X-3-3--|
 |GUITAR 2                               |             |
e|---------------21-21---------------------|-------------|
B|-----------------------------------------|-------------|
G|-----------------------------------------|-------------|
D|-----------------------------------------|--5-5-X-5-5--|
A|-----------------------------------------|--5-5-X-5-5--|
E|-----------------------------------------|--3-3-X-3-3--|


<><><><><><><><><><><><><><><><><><><><><><><><>
                    VERSO
<><><><><><><><><><><><><><><><><><><><><><><><>

  GUITAR 1
  (1:03)
   D         A         B         G
e|-----------------------------------------|
B|-----------------------------------------|
G|---7-9-7-----7-9-7-----7-9-7-----7-9-7---|
D|--7-7-7-7---7-7-7-7---7-7-7-7---7-7-7-7--| X2
A|-5---------------------------------------|
E|-----------5---------7---------3---------|

  GUITAR 2
  (1:03)
e|---------------------------------------------|
B|----------------------------------------7----|
G|--7-7-9-9-7--7-7-9-9-7--7-7-9-9-7--7-7-9-9-7-|
D|--7-7-7-7-7--7-7-7-7-7--7-7-7-7-7--7-7-------| X2
A|---------------------------------------------|
E|---------------------------------------------|
    . . . . .  . . . . .  . . . . .  . .

<><><><><><><><><><><><><><><><><><><><><><><><>
                  PRE-CORO
<><><><><><><><><><><><><><><><><><><><><><><><>

  GUITAR 1
  (1:17)
   G         A         B         D
e|-----------------------------------------|
B|-----------------------------------------|
G|---7-9-7-----7-9-7-----7-9-7-----7-9-7---|
D|--7-7-7-7---7-7-7-7---7-7-7-7---7-7-7-7--|
A|-------------------------------5---------|
E|-3---------5---------7-------------------|

  (1:23)
   G         A                        D
e|----------------------------------------|
B|----------------------------------------|
G|---7-9-7-----7-9-7------------------7---|
D|--7-7-7-7---7-7-7-7-----------------7---|
A|------------------------5------5----5---|
E|-3---------5----------3---3--2---2------|

  GUITAR 2
  (1:17)
e|------------------------------------------|
B|------------------------------------------|
G|-7-7--797-7-7--797-7-7--797--7X-9X-11X-9X-|
D|-7-7--777-7-7--777-7-7--777--7X-7X-7X--7X-|
A|------------------------------------------|
E|------------------------------------------|

  (1:23)
e|----------------------------------------|
B|----------------------------------------|
G|-7-7--797-7-7--797----------------7-----|
D|-7-7--777-7-7--777----------------7-----|
A|----------------------5------5----5-----|
E|--------------------3---3--2---2--------|

<><><><><><><><><><><><><><><><><><><><><><><><>
                      CORO
<><><><><><><><><><><><><><><><><><><><><><><><>
  GUITAR 1
  (1:30)
   G         A         B    A    G
e|-----------------------------------------|
B|-----------------------------------------|
G|---7-9-7-----7-9-7-----7----7----7-9-7---|
D|--7-7-7-7---7-7-7-7---7-7--7-7--7-7-7-7--|
A|-----------------------------------------|
E|-3---------5---------7----5----3---------|
 |GUITAR 2                               |
e|-----------------------------------------|
B|-----------------------------------------|
G|-----------------------------------------|
D|-5~--------7~--------9----7----5~--------|
A|-5~--------7~--------9----7----5~--------|
E|-3~--------5~--------7----5----3~--------|

  GUITAR 1
  (1:38)
   G         A         D         D
e|-----------------------------------------|
B|-----------------------------------------|
G|---7-9-7-----7-9-7-----7-9-7---777777----|
D|--7-7-7-7---7-7-7-7---7-7-7-7--777777----|
A|---------------------5---------555555----|
E|-3---------5-----------------------------|
 |GUITAR 2                               |
e|-----------------------------------------|
B|-----------------------------------------|
G|---------------------7-77-77-7-777777----|
D|-5---------7---------7-77-77-7-777777----|
A|-5---------7---------5-55-55-5-555555----|
E|-3---------5-----------------------------|

  GUITAR 1
  (1:44)
   G         A         B     A     G           G    A
e|------------------------------------------|----------|
B|------------------------------------------|----------|
G|---7-9-7-----7-9-7-----7-----7-----7-9-7--|----------|
D|--7-7-7-7---7-7-7-7---7-7---7-7---7-7-7-7-|--5----7--|
A|------------------------------------------|--5----7--|
E|-3---------5---------7-----5-----3--------|--3----5--|
 |GUITAR 2                                |          |
e|------------------------------------------|----------|
B|------------------------------------------|----------|
G|------------------------------------------|----------|
D|-XX-5XX5XXXX-7XX7-XXXX-9-XX7-XXXX-5XX5----|--5----7--|
A|-XX-5XX5XXXX-7XX7-XXXX-9-XX7-XXXX-5XX5----|--5----7--|
E|-XX-3XX3XXXX-5XX5-XXXX-7-XX5-XXXX-3XX3----|--3----5--|


  GUITAR 1
  (1:54)
e|-----------------------------|
B|-----------------------------|
G|---------------------7-------|
D|---------------------7-------|
A|------5-------5------5-X//X--|
E|-//-3---3---2----------X//X--|
 |GUITAR 2                   |
e|-----------------------------|
B|-----------------------------|
G|---------------------7~------|
D|---------------------7~------|
A|------5-------5------5~------|
E|----3---3---2---2------------|

<><><><><><><><><><><><><><><><><><><><><><><><>
                   PUENTE 2
<><><><><><><><><><><><><><><><><><><><><><><><>


  GUITAR 1
  (1:58)
    E        G        D        A
e|---------------------------------------|
B|---------------------------------------|
G|--------------------77777777-----------|
D|--22222222-55555555-77777777-77777777--|
A|--22222222-55555555-55555555-77777777--|
E|--00000000-33333333----------55555555--|
 |  ........ ........ ........ ........  |
 |GUITAR 2                             |
e|---------------------------------------|
B|---------------------------------------|
G|--------------------77777777-----------|
D|--22222222-55555555-77777777-77777777--|
A|--22222222-55555555-55555555-77777777--|
E|--00000000-33333333----------55555555--|
    ........ ........ ........ ........

  GUITAR 1
  (2:05)
    E        G                        D
e|---------------------------------------|
B|---------------------------------------|
G|------------------------------------7--|
D|--22222222-55555555-----------------7--|
A|--22222222-55555555----5-------5----5--|
E|--00000000-33333333--3---3---2---2-----|
 |GUITAR 2                             |
e|-----------------------------------10~-|
B|---------------------------------------|
G|--7--7--797--7--7--797---7v------------|
D|--7--7--777--7--7--777---7v------------|
A|---------------------------------------|
E|---------------------------------------|
    .  .  ...  .  .  ...
<><><><><><><><><><><><><><><><><><><><><><><><>
                    PUENTE 3
<><><><><><><><><><><><><><><><><><><><><><><><>


  GUITAR 1
  (2:12)
   G        A        B       D
e|-----------------------------------|
B|-----------------------------------|
G|-----------------------------------|
D|-----------------------------------| X4
A|---------------------------5555555-|
E|-33333333-55555555-7777777---------|
   ........ ........ ....... .......

  GUITAR 2
  (2:19)
e|--------------------------------------|
B|--------------------------------7-----|
G|-----7-797----7-797----7-797---7--9-7-|
D|--9-9------9-9------9-9-----9-9-------| X3
A|--------------------------------------|
E|--------------------------------------|
    . .. ... . .. ... . .. .... .


<><><><><><><><><><><><><><><><><><><><><><><><>
                      CORO
<><><><><><><><><><><><><><><><><><><><><><><><>
  GUITAR 1
  (2:40)
   G         A         B    A    G        G
e|------------------------------------------|
B|------------------------------------------|
G|---7-9-7-----7-9-7-----7----7----7-9-7----|
D|--7-7-7-7---7-7-7-7---7-7--7-7--7-7-7-7-5-|
A|----------------------------------------5-|
E|-3---------5---------7----5----3--------3-|
 |GUITAR 2                                |
e|------------------------------------------|
B|------------------------------------------|
G|------------------------------------------|
D|-5~--------7~--------9----7----5~-------5-|
A|-5~--------7~--------9----7----5~-------5-|
E|-3~--------5~--------7----5----3~-------3-|


GUITAR 1
  (2:48)
e|---------------------------|-------------------------|
B|---------------------------|-------------------------|
G|----------------------7----|--------------------7----|
D|--7-------------------7----|--------------------7----|
A|--7------5------5-----5----|------5------5------5----|
E|--5----3---3--2---2--------|----3---3--2---2---------|
 |GUITAR 2                 |
e|---------------------------|-------------------------|
B|---------------------------|-------------------------|
G|----------------------7----|--------------------7----|
D|--7-------------------7----|--------------------7----|
A|--7------5------5-----5----|------5------5------5----|
E|--5----3---3--2---2--------|----3---3--2---2---------|


<><><><><><><><><><><><><><><><><><><><><><><><>
                      FIN
<><><><><><><><><><><><><><><><><><><><><><><><>


  GUITAR 1
  (2:57)
e|--------------|
B|--------------|
G|---------7~---|
D|---7~----7~---|
A|---7~----5~---|
E|---5~---------|
 |GUITAR 2    |
e|--------------|
B|--------------|
G|---------7~---|
D|---7~----7~---|
A|---7~----5~---|
E|---5~---------|


            
            
Suggest correction
Creating personal tab
Creating personal tab
You can edit any tab online and save it as your Personal.

You can edit, replace or remove any tab part or add personal notes – all changes will be seen only by you.

Personal tabs can be accessed anytime from any device, even offline.
Learn more »
Give kudos to tab author, rate the tab!
1 2 3 4 5
comments
print report bad tab
guest
You may want to rate the tab now too:
select rating
Wanna post a correction for this tab? Suggest correction