Oops, an error
Loading. Please wait.

Si No Te Hubieras Ido Tab

266 views 1 this week
no commentswrite comment
1 2 3 4 5
3 more votes to show rating
add to favorites
launch autoscroll
font size
0
reset
how to read this tab
guitar tuner
Autoscroll
slow
fast
+/-
esc
set tempo
stop
Help us to improve Ultimate-Guitar.com Take our survey!
×
MODERATTO - SI NO TE HUBIERAS IDO

INTRO


|------------------------------------------------------------------|
|------------------------------------------------------------------|
|------------------------------------------------------------------|
|-----------7-(5)---------------7-(5)---5-7----7-5-----------------|
|-2/7--5-7------------2/7--5--7---------------------7-5-------5-7--|
|--------------------------------------------------------(7)-------|

|----------------------------------------------------------------|
|----------------------------------------------------------------|
|----------------------------------------------------------------|
|-----------------7-(5)--5-7-------7-5---------------------------|
|------2/7--5--7------------------------7-5------5-7-------------|
|--------------------------------------------7-------------------|

|----------------------------------------------------------------|
|----------------------------------------------------------------|
|----------------------------------------------------------------|
|-------------------7-(5)--5-7-----7-5---------------------------|
|-----2/7--5--7---------------------------7-5------5-7-----------|
|----------------------------------------------7-----------------|


|---------------------------------------------------------------|
|---------------------------------------------------------------|
|---------------------------------------------------------------|
|------------------7-(5)--5-7------7-5--------------------------|
|------2/7--5--7---------------------------7-5------5-7---------|
|-----------------------------------------------7---------------|


 METAL
----------------------------------------------------------------
----------------------------------------------------------------
--4-4-4-4-4------------------------------------7-7-7------------
--4-4-4-4-4-----5-5-5-5------------7-7---7-7---7-7-7------------
--2-2-2-2-2-----5-5-5-5------------7-7---7-7---5-5-5------------
----------------3-3-3-3------------5-5---5-5--------------------

----------------------------------------------------------------
----------------------------------------------------------------
---4-4-4-4------------------------------------7-7-7-------------
---4-4-4-4-----5-5-5-5------------7-7---7-7---7-7-7-------------
---2-2-2-2-----5-5-5-5------------7-7---7-7---5-5-5-------------
---------------3-3-3-3------------5-5---5-5---------------------


------------------------------------------
------------------------------------------
------------------------7-7-7-------------
------------7-7---7-7---7-7-7-------------
------------7-7---7-7---5-5-5-------------
------------5-5---5-5---------------------

VERSO

B5            G5         A5   D5
Te extraño más que nunca y no sé qué hacer

----------------------------------------
----------------------------------------
--4------------------------------7------
--4------------5-------------7---7------
--2------------5-------------7---5------
---------------3-------------5----------

------------------------------------------
------------------------------------------
------------------------7-7-7-------------
------------7-7---7-7---7-7-7-------------
------------7-7---7-7---5-5-5-------------
------------5-5---5-5---------------------


B5                G 5        A5   D5

despierto y te recuerdo al amanecer
--------------------------------------------------
--------------------------------------------------
--4------------------------------7----------------
--4------------5-------------7---7----------------
--2------------5-------------7---5----------------
---------------3-------------5--------------------


     A5                            D5
me espera otro día por vivir  sin ti
|---------------------------------------------------------------|
|---------------------------------------------------------------|
|--------------------------------7------------------------------|
|---7----------------------------7------------------------------|
|---7----------------------------5------------------------------|
|---5-----------------------------------------------------------|

A5                                 D5   F5   B5
 era tan diferente cuando estabas tú
|---------------------------------------------------------------|
|---------------------------------------------------------------|
|---------------------------------------------------------------|
|----------------------------------7------4------4--------------|
|--7-------------------------------5------4------2--------------|
|--5--------------------------------------2---------------------|


------------------------------------------
------------------------------------------
------------------------7-7-7-------------
------------7-7---7-7---7-7-7-------------
------------7-7---7-7---5-5-5-------------
------------5-5---5-5---------------------


A5                                      D5  D5
 No hay nada mas difícil que vivir sin ti
|---------------------------------------------------------------|
|-----------------------------------------------------------------|
|---------------------------------------------------------------|
|--------------------------------------7--------7---------------|
|--7-----------------------------------5--------5------------------|
|--5-------------------------------------------------------------|

----------------------------------
----------------------------------
--4-4-4-4-------------------------
--4-4-4-4------5-5-5-5------------
--2-2-2-2------5-5-5-5------------
---------------3-3-3-3------------


A5                                   D5    D5
 sufriendo en la espera de verte llegar
|---------------------------------------------------------------|
|-----------------------------------------------------------------|
|---------------------------------------------------------------|
|----------------------------------7------7---------------------|
|-7--------------------------------5------5------------------------|
|-5--------------------------------------------------------------|


A5                                  D5
 el frío de mi cuerpo pregunta por ti
|---------------------------------------------------------------|
|-----------------------------------------------------------------|
|---------------------------------------------------------------|
|----------------------------------7---------------------------|
|--7-------------------------------5------------------------------|
|--5-------------------------------------------------------------|


  F#5           B5
y no sé dónde estás...
|---------------------------------------------------------------|
|-----------------------------------------------------------------|
|---------------------------------------------------------------|
|----------------4---------------------------------------------|
|--4-------------2------------------------------------------------|
|--2-------------------------------------------------------------|


B5-A5-G5                  A5               D5
     si no te hubieras ido sería tan feliz
|--------------------------------------------------------------|
|--------------------------------------------------------------|
|--------------------------------------------------------------|
|--4-----------------------------------7-----------------------|
|--2---7-----5------7------------------5-----------------------|
|------5-----3------5------------------------------------------|

----------------------------------
----------------------------------
--4-4-4-4-------------------------
--4-4-4-4------5-5-5-5------------
--2-2-2-2------5-5-5-5------------
---------------3-3-3-3------------
----------------------------------

Auuuuuuuuuu!!!!!

----------------------------------
--4-4-4-4-------------------------
--4-4-4-4------5-5-5-5------------
--2-2-2-2------5-5-5-5------------
---------------3-3-3-3------------


B5            G5         A5    D5
el ritmo de la vida me parece mal
|---------------------------------------------------------------|
|-----------------------------------------------------------------|
|---------------------------------------------------------------|
|--4---------------------------7--------------------------------|
|--2-----------5----------7----5------------------------------------|
|--------------3----------5---------------------------------------|

------------------------------------------
------------------------------------------
------------------------7-7-7-------------
------------7-7---7-7---7-7-7-------------
------------7-7---7-7---5-5-5-------------
------------5-5---5-5---------------------


A                                  D   F#7   Bm
 era tan diferente cuando estabas tú
|---------------------------------------------------------------|
|-----------------------------------------------------------------|
|---------------------------------------------------------------|
|---------------------------------7-----------4-----------------|
|---7-----------------------------5-----4-----2---------------------|
|---5-----------------------------------2-------------------------|


G                A                   D
 sí que era diferente cuando estabas tú.
|---------------------------------------------------------------|
|-----------------------------------------------------------------|
|---------------------------------------------------------------|
|----------------------------------7---------------------------|
|---5-----------7------------------5-------------------------------|
|---3-----------5-------------------------------------------------|

------------------------------------------
------------------------------------------
------------------------7-7-7-------------
------------7-7---7-7---7-7-7-------------
------------7-7---7-7---5-5-5-------------
------------5-5---5-5---------------------

A                                      D    Dsus4
 No hay nada mas difícil que vivir sin ti, nooo
|---------------------------------------------------------------|
|---------------------------------------------------------------|
|---------------------------------------------------------------|
|-------------------------------------7---------7---------------|
|---7---------------------------------5---------5---------------|
|---5-----------------------------------------------------------|

|---------------------------------------------------------------|
|----12--h--10-/11/12-------------------------------------------|
|---------------------------------------------------------------|
|---------------------------------------------------------------|
|---------------------------------------------------------------|
|---------------------------------------------------------------|

A                                   D    Dsus4
 sufriendo en la espera de verte llegar,
|---------------------------------------------------------------|
|---------------------------------------------------------------|
|---------------------------------------------------------------|
|---------------------------------7-----------7-----------------|
|---7-----------------------------5-----------5-----------------|
|---5-----------------------------------------------------------|

|---------------------------------------------------------------|
|----12--h--10-/11/12-------------------------------------------|
|---------------------------------------------------------------|
|---------------------------------------------------------------|
|---------------------------------------------------------------|
|---------------------------------------------------------------|


A                                  D
 el frío de mi cuerpo pregunta por ti
|---------------------------------------------------------------|
|---------------------------------------------------------------|
|---------------------------------------------------------------|
|-----------------------------------7---------------------------|
|--7--------------------------------5---------------------------|
|--5------------------------------------------------------------|


  F#7           Bm
y no sé dónde estás...
|---------------------------------------------------------------|
|-----------------------------------------------------------------|
|---------------------------------------------------------------|
|--4-------------4----------------------------------------------|
|--4-------------2------------------------------------------------|
|--2-------------------------------------------------------------|
req


Bm-A-G                  A               D   Dsus4
     si no te hubieras ido sería tan feliz
|---------------------------------------------------------------|
|-----------------------------------------------------------------|
|---------------------------------------------------------------|
|--4-------------------------------------7------7----------------|
|--2---------7----5----------------------5------5--------------------|
|------------5----3-----------------------------------------------|


A                                      D    Dsus4
 No hay nada mas difícil que vivir sin ti, nooo
|---------------------------------------------------------------|
|-----------------------------------------------------------------|
|---------------------------------------------------------------|
|---------------------------------------7--------7--------------|
|--7------------------------------------5--------5-----------------|
|--5-------------------------------------------------------------|

req


A                                   D
 sufriendo en la espera de verte llegar
|---------------------------------------------------------------|
|-----------------------------------------------------------------|
|---------------------------------------------------------------|
|----------------------------------7---------------------------|
|--7-------------------------------5------------------------------|
|--5-------------------------------------------------------------|

req


A                                  D
 el frío de mi cuerpo pregunta por ti
|---------------------------------------------------------------|
|-----------------------------------------------------------------|
|---------------------------------------------------------------|
|-----------------------------------7--------------------------|
|--7--------------------------------5-----------------------------|
|--5-------------------------------------------------------------|


  F#7           Bm
y no sé dónde estás...
|---------------------------------------------------------------|
|-----------------------------------------------------------------|
|---------------------------------------------------------------|
|----------------4---------------------------------------------|
|--4-------------2------------------------------------------------|
|--2-------------------------------------------------------------|


Bm-A-G                  A               Bm
     si no te hubieras ido sería tan feliz
|---------------------------------------------------------------|
|-----------------------------------------------------------------|
|---------------------------------------------------------------|
|----4---------------------------7-------4-----------------------|
|----2-------7-------5-----------5-------2---------------------------|
|------------5-------3--------------------------------------------|

------------------------------------------
------------------------------------------
------------------------7-7-7-------------
------------7-7---7-7---7-7-7-------------
------------7-7---7-7---5-5-5-------------
------------5-5---5-5---------------------

------------------------------------------
------------------------------------------
------------------------7-7-7-------------
------------7-7---7-7---7-7-7-------------
------------7-7---7-7---5-5-5-------------
------------5-5---5-5---------------------

------------------------------------------
------------------------------------------
------------------------7-7-7-------------
------------7-7---7-7---7-7-7-------------
------------7-7---7-7---5-5-5-------------
------------5-5---5-5---------------------


------------------------------------------
------------------------------------------
------------------------7-7-7-------------
------------7-7---7-7---7-7-7-------------
------------7-7---7-7---5-5-5-------------
------------5-5---5-5---------------------

------------------------------------------
------------------------------------------
------------------------7-7-7-------------
------------7-7---7-7---7-7-7-------------
------------7-7---7-7---5-5-5-------------
------------5-5---5-5---------------------


Bm-A-G                  A               D   Dsus4 D
     si no te hubieras ido sería tan feliz
|------------------------------------------------------------------|
|------------------------------------------------------------------|
|------------------------------------------------------------------|
|-4-------------------------------------7---------7----------------|
|-2-----7----5----------7---------------5---------5----------------|
|-------5----3----------5------------------------------------------|

A                                      D  Dsus4
 No hay nada mas difícil que vivir sin ti
|---------------------------------------------------------------|
|-----------------------------------------------------------------|
|---------------------------------------------------------------|
|--------------------------------------7--------7---------------|
|--7-----------------------------------5--------5------------------|
|--5-------------------------------------------------------------|

----------------------------------
----------------------------------
--4-4-4-4-------------------------
--4-4-4-4------5-5-5-5------------
--2-2-2-2------5-5-5-5------------
---------------3-3-3-3------------


A                                   D    Dsus4
 sufriendo en la espera de verte llegar
|---------------------------------------------------------------|
|-----------------------------------------------------------------|
|---------------------------------------------------------------|
|----------------------------------7------7---------------------|
|-7--------------------------------5------5------------------------|
|-5--------------------------------------------------------------|


A                                  D
 el frío de mi cuerpo pregunta por ti
|---------------------------------------------------------------|
|-----------------------------------------------------------------|
|---------------------------------------------------------------|
|----------------------------------7---------------------------|
|--7-------------------------------5------------------------------|
|--5-------------------------------------------------------------|


  F#7           Bm
y no sé dónde estás...
|---------------------------------------------------------------|
|-----------------------------------------------------------------|
|---------------------------------------------------------------|
|----------------4---------------------------------------------|
|--4-------------2------------------------------------------------|
|--2-------------------------------------------------------------|


Bm-A-G                  A               D
     si no te hubieras ido sería tan feliz
|--------------------------------------------------------------|
|--------------------------------------------------------------|
|--------------------------------------------------------------|
|--4-----------------------------------7-----------------------|
|--2---7-----5------7------------------5-----------------------|
|------5-----3------5------------------------------------------|

----------------------------------
----------------------------------
--4-4-4-4-------------------------
--4-4-4-4------5-5-5-5------------
--2-2-2-2------5-5-5-5------------
---------------3-3-3-3------------
----------------------------------

Auuuuuuuuuu!!!!!

----------------------------------
--4-4-4-4-------------------------
--4-4-4-4------5-5-5-5------------
--2-2-2-2------5-5-5-5------------
---------------3-3-3-3------------

Si no te hubieras ido!!!!
Si no te hubieras ido!!!!
Si no te hubieras ido no hubiera llegado la otra!!!!!!


ESTO SI SON UNOS BUENOS ARREGLOS POR PARTE DELOS MAESTROS
DE MODERATTO
NO COMO OTROS QUE DISQUE SON MUY FREGONES Y NOMAS NO DAN UNA
PUES NO TIENEN TALENTO )LOS FRESAS DE MANA
Suggest correction
Give kudos to tab author, rate the tab!
1 2 3 4 5
comments
print report bad tab
guest
You may want to rate the tab now too:
select rating
Wanna post a correction for this tab? Suggest correction