Oops, an error
Loading. Please wait.

Villa Coapa Bass

22 views 1 this week
no commentswrite comment
1 2 3 4 5
3 more votes to show rating
add to favorites
launch autoscroll
font size
0
reset
guitar tuner
×
Best way to learn
"Villa Coapa"
Autoscroll
slow
fast
+/-
esc
set tempo
stop
Bueno aquí les mando esta canción muy buena,
Quiero roooooooooooockkkkk!!!!!!!!!!
¡Suerte!


G|---------------------------------------------------------------|
D|---------------------------------------------------------------|
A|---------------------------------------------------------------|
E|---5-5-5-5-5-5-5-5-5-5-5-5-5-5-5-5-5-5-5-5-5-5-5-5-5-5-5-33-2--|


   Saludos a Villa Coapa,                  Saludos Cd. Satelite,
G|------------------------------------------------------------------|
D|------------------------------------------------------------------|
A|------------------------------------------------------------------|
E|-5-5-5-5-5-5-5-5-5-5-5-5-5-5-5-5-5-5-5-5-5-5-5-5-5-5-5-5-5-5-5----|


   Y a la gente de la Condesa,     Y a toda la Bandera en Neza,
G|--------------------------------------------------------------------------|
D|--------------------------------------------------------------------------|
A|--------------------------------------------------------------------------|
E|-5-5-5-5-5-5-5-5-5-5-5-5-5-5-5-5-5-5-5-5-5-5-5-5-5-5-5-5-5-5-5-5-5-5-33-2-|


   Paltitlan, Aragón, Agricol Oriental,...
   Atzcapotzalco...
G|----------------------------------------|
D|----------------------------------------|
A|----------------------------------------|  (x2)
E|--------0------0--------0-------3-4-----|


G|---------------------------|
D|---------------------------|
A|--3/7-7-7------------------|
E|----------3-4--0-0-0--3-4--|


   Hey Villa Coapa...
G|-----------------------------------------|
D|-----------------------------------------|
A|--------------------------2-3-4-5--------| (x3)
E|-5-5-5-5-5-5-5-5-5-5-5--3---------2-3-4--|


   Saludos a Arboledas de...
G|----------------------------------------|
D|----------------------------------------|
A|----------------------------------------|
E|-0-0-0-0-0-0-0-0-0-0-0-0-0-0-0-0-0-0-0--|


G|-------------------------------------------|
D|-------------------------------------------|
A|-------------------------------------------|
E|-0h4-0h5-0h6-0h7---0h4-0h5-0h6-0h7-----55--|
Suggest correction
Give kudos to tab author, rate the tab!
1 2 3 4 5
comments
print report bad tab
guest
You may want to rate the tab now too:
select rating
Wanna post a correction for this tab? Suggest correction