Oops, an error
Loading. Please wait.

Broken Cash Machine Tab

version 3
version 3

Whole song

  • I feel that my TAB is very accurate and relatively easy to read through.

Interactive

55 views 3 this week
no commentswrite comment
1 2 3 4 5
2 more votes to show rating
add to favorites
launch autoscroll
font size
0
reset
how to read this tab
guitar tuner
Autoscroll
slow
fast
+/-
esc
set tempo
stop
Help us to improve Ultimate-Guitar.com Take our survey!
×
Author
Difficulty
Tuning
intermediate
D# G# C# F# A# D#
About this tab version
I feel that my TAB is very accurate and relatively easy to read through. Was this info helpful? Yes No
---------------------------------------
 Broken Cash Machine ~ Modern Baseball
---------------------------------------
Album: You're Gonna Miss It All  (2014)

Tabbed By: Russcool

Tuning: Half-Step Down



INTRO
   (let ring throughout)
Eb|----------------------------|----------------------------|
Bb|----------------------------|----------------------------|
Gb|----------------------------|----------------------------|
Db|-----0-----0-----0-----0----|-----0-----0-----0-----0----|
Ab|--5-----5-----5-----5-------|--4-----4-----4-----4-------|
Eb|----------------------------|----------------------------|

Eb|----------------------------|----------------------------|
Bb|----------------------------|----------------------------|
Gb|----------------------------|----------------------------|
Db|-----0-----0-----0-----0----|-----0-----0-----0-----0----|
Ab|--5-----5-----5-----5-------|--10----10----10----10------|
Eb|----------------------------|----------------------------|

Eb|----------------------------|----------------------------|
Bb|----------------------------|----------------------------|
Gb|----------------------------|----------------------------|
Db|-----0-----0-----0-----0----|-----0-----0-----0-----0----|
Ab|--7-----7-----7-----7-------|--10----10----10----10------|
Eb|----------------------------|----------------------------|



VERSE

   Guitar 1
Eb|----------------------------|----------------------------|
Bb|----------------------------|----------------------------|
Gb|----------------------------|----------------------------|
Db|-----0-----0-----0-----0----|-----0-----0-----0-----0----|
Ab|--5-----5-----5-----5-------|--4-----4-----4-----4-------|
Eb|----------------------------|----------------------------|

Eb|----------------------------|----------------------------|
Bb|----------------------------|----------------------------|
Gb|----------------------------|----------------------------|
Db|-----0-----0-----0-----0----|-----0-----0-----0-----0----|
Ab|--5-----5-----5-----5-------|--10----10----10----10------|
Eb|----------------------------|----------------------------|

Eb|----------------------------|----------------------------|
Bb|----------------------------|----------------------------|
Gb|----------------------------|----------------------------|
Db|-----0-----0-----0-----0----|-----0-----0-----0-----0----|
Ab|--7-----7-----7-----7-------|--4-----4-----4-----4-------|
Eb|----------------------------|----------------------------|

Eb|----------------------------|----------------------------|
Bb|----------------------------|----------------------------|
Gb|----------------------------|----------------------------|
Db|-----0-----0-----0-----0----|-----0-----0-----0-----0----|
Ab|--5-----5-----5-----5-------|--4-----4-----4-----4-------|
Eb|----------------------------|----------------------------|

Eb|----------------------------|----------------------------|
Bb|----------------------------|----------------------------|
Gb|----------------------------|----------------------------|
Db|-----0-----0-----0-----0----|-----0-----0-----0-----0----|
Ab|--5-----5-----5-----5-------|--10----10----10----10------|
Eb|----------------------------|----------------------------|

Eb|----------------------------|----------------------------|
Bb|----------------------------|----------------------------|
Gb|----------------------------|----------------------------|
Db|-----0-----0-----0-----0----|-----0-----0-----0-----0----|
Ab|--7-----7-----7-----7-------|--10----10----10----10------|
Eb|----------------------------|----------------------------|

Eb|----------------------------|----------------------------|
Bb|----------------------------|----------------------------|
Gb|----------------------------|----------------------------|
Db|-----0-----0-----0-----0----|-----0-----0-----0-----0----|
Ab|--5-----5-----5-----5-------|--4-----4-----4-----4-------|
Eb|----------------------------|----------------------------|

Eb|----------------------------|----------------------------|
Bb|----------------------------|----------------------------|
Gb|----------------------------|----------------------------|
Db|-----0-----0-----0-----0----|-----0-----0-----0-----0----|
Ab|--5-----5-----5-----5-------|--10----10----10----10------|
Eb|----------------------------|----------------------------|

Eb|----------------------------|----------------------------|
Bb|----------------------------|----------------------------|
Gb|----------------------------|----------------------------|
Db|-----0-----0-----0-----0----|-----0-----0-----0-----0----|
Ab|--7-----7-----7-----7-------|--4-----4-----4-----4-------|
Eb|----------------------------|----------------------------|

Eb|----------------------------|----------------------------|
Bb|----------------------------|----------------------------|
Gb|----------------------------|----------------------------|
Db|-----0-----0-----0-----0----|-----0-----0-----0-----0----|
Ab|--2-----2-----2-----2-------|--1-----1-----1-----1-------|
Eb|----------------------------|----------------------------|


   Guitar 2 (Rest 12 measures)
   (Palm-Muted)
Eb|----------------------------|----------------------------|
Bb|----------------------------|----------------------------|
Gb|--7--7--7--7--7--7--7--7----|----------------------------|
Db|--7--7--7--7--7--7--7--7----|--7--7--7--7--7--7--7--7----|
Ab|--5--5--5--5--5--5--5--5----|--7--7--7--7--7--7--7--7----|
Eb|--5--5--5--5--5--5--5--5----|--5--5--5--5--5--5--5--5----|

Eb|----------------------------|----------------------------|
Bb|----------------------------|----------------------------|
Gb|----------------------------|----------------------------|
Db|----------------------------|--5--5--5--5--5--5--5--5----|
Ab|--5--5--5--5--5--5--5--5----|--5--5--5--5--5--5--5--5----|
Eb|--2--2--2--2--2--2--2--2----|--3--3--3--3--3--3--3--3----|

Eb|----------------------------|----------------------------|
Bb|----------------------------|----------------------------|
Gb|--6--6--6--6--6--6--6--6----|--6--6--6--6--6--6--6--6----|
Db|--7--7--7--7--7--7--7--7----|--7--7--7--7--7--7--7--7----|
Ab|--7--7--7--7--7--7--7--7----|--7--7--7--7--7--7--7--7----|
Eb|--5--5--5--5--5--5--5--5----|--5--5--5--5--5--5--5--5----|

Eb|----------------------------|--3--3--3--3--3--3--3--3----|
Bb|----------------------------|--3--3--3--3--3--3--3--3----|
Gb|--4--4--4--4--4--4--4--4----|--3--3--3--3--3--3--3--3----|
Db|--5--5--5--5--5--5--5--5----|--5--5--5--5--5--5--5--5----|
Ab|--5--5--5--5--5--5--5--5----|--5--5--5--5--5--5--5--5----|
Eb|--3--3--3--3--3--3--3--3----|--3--3--3--3--3--3--3--3----|



CHORUS
   Guitar 2
   "Oh, why did I do that..."
Eb|----------------------------|----------------------------|
Bb|--7--7--7--7--7--7--7--7----|--7--7--7--7--7--7--7--7----|
Gb|--7--7--7--7--7--7--7--7----|--7--7--7--7--7--7--7--7----|
Db|--X--X--X--X--X--X--X--X----|--6--6--6--6--6--6--6--6----|
Ab|--5--5--5--5--5--5--5--5----|--5--5--5--5--5--5--5--5----|
Eb|----------------------------|----------------------------|

Eb|----------------------------|----------------------------|
Bb|--7--7--7--7--7--7--7--7----|--7--7--7--7--7--7--7--7----|
Gb|--7--7--7--7--7--7--7--7----|--7--7--7--7--7--7--7--7----|
Db|--5--5--5--5--5--5--5--5----|--X--X--X--X--X--X--X--X----|
Ab|----------------------------|--X--X--X--X--X--X--X--X----|
Eb|----------------------------|--7--7--7--7--7--7--7--7----|

Eb|----------------------------|----------------------------|
Bb|--7--7--7--7--7--7--7--7----|--7--7--7--7--7-------------|
Gb|--7--7--7--7--7--7--7--7----|--7--7--7--7--7-------------|
Db|--X--X--X--X--4--4--4--4----|--X--X--X--X--X-------------|
Ab|--7--7--7--7----------------|--X--X--X--X--X-------------|
Eb|----------------------------|--7--7--7--7--7-------------|

   "Hey, why did I do that..."
Eb|----------------------------|----------------------------|
Bb|--7--7--7--7--7--7--7--7----|--7--7--7--7--7--7--7--7----|
Gb|--7--7--7--7--7--7--7--7----|--7--7--7--7--7--7--7--7----|
Db|--7--7--7--7--7--7--7--7----|--X--X--X--X--X--X--X--X----|
Ab|--5--5--5--5--5--5--5--5----|--X--X--X--X--X--X--X--X----|
Eb|----------------------------|--5--5--5--5--5--5--5--5----|

Eb|----------------------------|----------------------------|
Bb|--7--7--7--7--7--7--7--7----|--7--7--7--7--7--7--7--7----|
Gb|--7--7--7--7--7--7--7--7----|--7--7--7--7--7--7--7--7----|
Db|--5--5--5--5--5--5--5--5----|--X--X--X--X--X--X--X--X----|
Ab|----------------------------|--X--X--X--X--X--X--X--X----|
Eb|----------------------------|--7--7--7--7--7--7--7--7----|

Eb|----------------------------|----------------------------|
Bb|--7--7--7--7--7--7--7--7----|--7--7--7--7--7--7--7--7----|
Gb|--7--7--7--7--7--7--7--7----|--7--7--7--7--7--7--7--7----|
Db|--X--X--X--X--4--4--4--4----|--X--X--X--X--X--X--X--X----|
Ab|--7--7--7--7----------------|--X--X--X--X--X--X--X--X----|
Eb|----------------------------|--7--7--7--7--7--7--7--7----|


   Guitar 1 (Rest for 6 measures)
Eb|----------------------------|----------------------------|
Bb|----------------------------|----------------------------|
Gb|--6--7-----7--9-----9-------|--6--7-----7--9-----9-------|
Db|----------------------------|----------------------------|
Ab|----------------------------|----------------------------|
Eb|----------------------------|----------------------------|

Eb|----------------------------|----------------------------|
Bb|-10-------------------------|----------------------------|
Gb|-----7-----7--9-------------|-11--7-----7--9-------------|
Db|--------------------7-------|--------------------7-------|
Ab|----------------------------|----------------------------|
Eb|----------------------------|----------------------------|

Eb|----------------------------|----------------------------|
Bb|----------------------------|-----------------7--8-10----|
Gb|--6--7-----7--9-----9-------|--6--7-----7--9-------------|
Db|----------------------------|----------------------------|
Ab|----------------------------|----------------------------|
Eb|----------------------------|----------------------------|



GUITAR SOLO
   Guitar 1 
Eb|----------------------------|----------------------------|
Bb|----------------------------|----------------------------|
Gb|--9b-------9-----7-----7----|--------9b----9-----7-------|
Db|----------------------------|----------------------------|
Ab|----------------------------|----------------------------|
Eb|----------------------------|----------------------------|

Eb|----------------------------|----------------------------|
Bb|-10----10-10-----------7----|----------------------------|
Gb|--7-----7--7-----7----------|-----7--------9-----7-------|
Db|--0-----0--0-----0----------|-----------0----------------|
Ab|----------------------------|----------------------------|
Eb|----------------------------|----------------------------|

Eb|----------------------------|----------------------------|
Bb|--7--7--7--7--8--8--8--8----|-10-10-10-10-10-10-10--8----|
Gb|----------------------------|----------------------------|
Db|----------------------------|----------------------------|
Ab|----------------------------|----------------------------|
Eb|----------------------------|----------------------------|


   Guitar 2
Eb|----------------------------|----------------------------|
Bb|--7--7--7--7--7--7--7--7----|--7--7--7--7--7--7--7--7----|
Gb|--7--7--7--7--7--7--7--7----|--7--7--7--7--7--7--7--7----|
Db|--7--7--7--7--7--7--7--7----|--X--X--X--X--X--X--X--X----|
Ab|--5--5--5--5--5--5--5--5----|--X--X--X--X--X--X--X--X----|
Eb|----------------------------|--7--7--7--7--7--7--7--7----|

Eb|----------------------------|----------------------------|
Bb|--7--7--7--7--7--7--7--7----|--7--7--7--7--7--7--7--7----|
Gb|--7--7--7--7--7--7--7--7----|--7--7--7--7--7--7--7--7----|
Db|--X--X--X--X--X--X--X--X----|--X--X--X--X--X--X--X--X----|
Ab|--X--X--X--X--X--X--X--X----|--X--X--X--X--X--X--X--X----|
Eb|--5--5--5--5--5--5--5--5----|--5--5--5--5--5--5--5--5----|

Eb|----------------------------|----------------------------|
Bb|--7--7--7--7--7--7--7--7----|--7--7--7--7--7--7--7--7----|
Gb|--7--7--7--7--7--7--7--7----|--7--7--7--7--7--7--7--7----|
Db|--X--X--X--X--X--X--X--X----|--X--X--X--X--X--X--X--X----|
Ab|--5--5--5--5--5--5--5--5----|--6--6--6--6--6--6--6--6----|
Eb|----------------------------|----------------------------|



VERSE
(Repeat the first verse, but rest the first 6 measures)



CHORUS
(Repeat the first chorus, but have guitar 1 play throughout)



OUTRO

   Guitar 2
Eb|----------------------------|----------------------------|
Bb|--7--7--7--7--7--7--7--7----|--7--7--7--7--7--7--7--7----|
Gb|--7--7--7--7--7--7--7--7----|--7--7--7--7--7--7--7--7----|
Db|--X--X--X--X--X--X--X--X----|--6--6--6--6--6--6--6--6----|
Ab|--5--5--5--5--5--5--5--5----|--5--5--5--5--5--5--5--5----|
Eb|----------------------------|----------------------------|

Eb|----------------------------|----------------------------|
Bb|--7--7--7--7--7--7--7--7----|--7--7--7--7--7--7--7--7----|
Gb|--7--7--7--7--7--7--7--7----|--7--7--7--7--7--7--7--7----|
Db|--5--5--5--5--5--5--5--5----|--X--X--X--X--X--X--X--X----|
Ab|----------------------------|--X--X--X--X--X--X--X--X----|
Eb|----------------------------|--7--7--7--7--7--7--7--7----|

Eb|----------------------------|----------------------------|
Bb|--7--7--7--7--7--7--7--7----|--7--7--7--7--7--7--7--7----|
Gb|--7--7--7--7--7--7--7--7----|--7--7--7--7--7--7--7--7----|
Db|--X--X--X--X--X--X--X--X----|--X--X--X--X--X--X--X--X----|
Ab|--X--X--X--X--X--X--X--X----|--X--X--X--X--X--X--X--X----|
Eb|--5--5--5--5--5--5--5--5----|--5--5--5--5--5--5--5--5----|

Eb|----------------------------|----------------------------|
Bb|--7--7--7--7--7--7--7--7----|--7--7--7--7--7--7--7--7----|
Gb|--7--7--7--7--7--7--7--7----|--7--7--7--7--7--7--7--7----|
Db|--5--5--5--5--5--5--5--5----|--5--5--5--5--5--5--5--5----|
Ab|--5--5--5--5--5--5--5--5----|--5--5--5--5--5--5--5--5----|
Eb|----------------------------|----------------------------|

Eb|----------------------------|
Bb|--7-------------------------|
Gb|--7-------------------------|
Db|--5-------------------------|
Ab|--5-------------------------|
Eb|----------------------------|


   Guitar 1
Eb|----------------------------|----------------------------|
Bb|----------------------------|----------------------------|
Gb|--6--7-----7--9-----9-------|--6--7-----7--9-----9-------|
Db|----------------------------|----------------------------|
Ab|----------------------------|----------------------------|
Eb|----------------------------|----------------------------|

Eb|----------------------------|----------------------------|
Bb|-10-------------------------|----------------------------|
Gb|-----7-----7--9-------------|-11--7-----7--9-------------|
Db|--------------------7-------|--------------------7-------|
Ab|----------------------------|----------------------------|
Eb|----------------------------|----------------------------|

Eb|----------------------------|----------------------------|
Bb|----------------------------|----------------------------|
Gb|--6--7-----7--9-----9-------|--6--7-----7--9-----9-------|
Db|----------------------------|----------------------------|
Ab|----------------------------|----------------------------|
Eb|----------------------------|----------------------------|

Eb|----------------------------|----------------------------|
Bb|----------------------------|----------------------------|
Gb|--6--7-----7--9-----9-------|--9b-9-----7--9b----9-------|
Db|----------------------------|----------------------------|
Ab|----------------------------|----------------------------|
Eb|----------------------------|----------------------------|

Eb|----------------------------|
Bb|----------------------------|
Gb|--8\------------------------|
Db|----------------------------|
Ab|----------------------------|
Eb|----------------------------|





LYRICS

[VERSE]
Home alone on friday night
No better time for exercise
And wishing you were still my girlfriend

Sweeping floors and folding napkins
Praying something cool might happen
The sun explodes we die
The world ends

Talking to my friends about stuff
Nasty beer and plastic handcuffs
Back when them and you and me
Would share our space in harmony


[CHORUS]
Oh, why did I do that?
Why does everything collapse
Even when it's glued together

Hey, why did I do that?
I make everything collapse
Even when it's glued together


[VERSE]
Questioning my awkward footing
Mixing bitter pills with chocolate pudding
Hiding gifted fixtures

Trying to not say words out loud
Wondering if I'm talking too loud

My eyes burning holes in your old pictures


[CHORUS]
Oh, why did I do that?
Why does everything collapse
Even when it's glued together

Hey, why did I do that?
I make everything collapse
Even when it's glued together


[OUTRO]
Fuck you why did I do that?
It's your fault I can't relax
But nothing changing while I'm sitting here
With both hands glued together
Suggest correction
Give kudos to tab author, rate the tab!
1 2 3 4 5
comments
print report bad tab
guest
You may want to rate the tab now too:
select rating
Wanna post a correction for this tab? Suggest correction