Oops, an error
Loading. Please wait.

Chl03K Bass Tab

version 1
version 1

Whole song

  • First bass tab of this song.

Interactive

52 views 15 this week
no commentswrite comment
1 2 3 4 5
3 more votes to show rating
add to favorites
launch autoscroll
font size
0
reset
guitar tuner
Autoscroll
slow
fast
+/-
esc
set tempo
stop
Help us to improve Ultimate-Guitar.com Take our survey!
×
Author
Difficulty
novice
About this tab version
First bass tab of this song. Was this info helpful? Yes No
[Verse]
0:18
"But now that you saw my tweets"
G|-----------------------------------------------------|
D|-----------------------------------------------------|
A|---6---6-5---5-3---3-1-1-3-5-6---6-5---5-3---3-1-1---|
E|-----------------------------------------------------|

G|-----------------------------|
D|-----------------------------|
A|---6---6-5---5-3---3-1-------|
E|-----------------------3-4---|

G|-----------------------------------------------------|
D|-----------------------------------------------------|
A|---6---6-5---5-3---3-1-1-3-5-6---6-5---5-3---3-1-1---|
E|-----------------------------------------------------|

G|-------------------------------------------------------------|
D|-------------------------------------------------------------|
A|---6---6-5---5-3---3-1---------------------------------------|
E|-----------------------3-4---4---4---4---4-4-4-4-4-4-4-4-4-4-|

[Chorus]
0:51
"But I couldn't give a fuck..."
G|---------------------------------------------------------------------------|
D|---------------------------------------------------------------------------|       x4
A|---6---6-6---5---5-5-------------------------------------------------------|
E|-----------------------4---4-4---4---4-4-----------------------------------|
Suggest correction
Give kudos to tab author, rate the tab!
1 2 3 4 5
comments
print report bad tab
guest
You may want to rate the tab now too:
select rating
Wanna post a correction for this tab? Suggest correction