Oops, an error
Loading. Please wait.

Coals Tab

version 1
version 1

Whole song

Interactive

16,958 views 228 this week
7 commentsread comments
1 2 3 4 5
excellent!
x 18
add to favorites
launch autoscroll
font size
0
reset
how to read this tab
guitar tuner
Tab Pro tools
  • play this tab
  • loop segment
  • change instrument
  • show fretboard
  • metronome
Autoscroll
slow
fast
+/-
esc
set tempo
stop
Contributor

Capo 3 in Eb standard is how it is played by the band. But you can just do capo 2 if you don't wanna change your tuning. 

Verse
E|--------------------------------------------------|
B|----------0-----------3-----------1p0--------1p0--|
G|-----0h2-----0-----------4------------------------|
D|-------------------4-----------2----------2-------|
A|----------------2-----------3----------3----------|      x5
E|--3-----------------------------------------------|



E|------------------------------------2--|
B|--------3\1--------1p0--------3--------|
G|---------------------------2-----2-----|
D|-----0----------0-------0--------------|
A|--0----------0-------------------------|
E|---------------------------------------|


E|--------------------------------------------------|
B|----------0-----------3-----------1p0--------1p0--|
G|-----0h2-----0-----------4------------------------|
D|-------------------4-----------2----------2-------|
A|----------------2-----------3----------3----------|      x7
E|--3-----------------------------------------------|



E|------------------------------------2--|
B|--------3\1--------1p0--------3--------|
G|---------------------------2-----2-----|
D|-----0----------0-------0--------------|
A|--0----------0-------------------------|
E|---------------------------------------|


E|--------------------------------------------------|
B|----------0-----------3-----------1p0--------1p0--|
G|-----0h2-----0-----------4------------------------|
D|-------------------4-----------2----------2-------|
A|----------------2-----------3----------3----------|      x5
E|--3-----------------------------------------------|

E|------------------------------------2--|
B|--------3\1--------1p0--------3--------|
G|---------------------------2-----2-----|
D|-----0----------0-------0--------------|
A|--0----------0-------------------------|
E|---------------------------------------|



Chorus

E|--3--3--3--3--3--3--3--3--3--3--3--3--2--3--
B|--3--3--3--3--3--3--3--3--3--3--3--3--3--3--
G|--0--0--0--0--0--0--0--0--0--2--0--0--2--2--
D|--0--0--2--0--0--2--2--2--0--2--2--2--0--0--
A|--2--2--3--2--2--3--2--3--2--0--2--3--------
E|--3--------3--------0-----------0-----------




E|--------------------------------------------------|
B|----------0-----------3-----------1p0--------1p0--|
G|-----0h2-----0-----------4------------------------|
D|-------------------4-----------2----------2-------|
A|----------------2-----------3----------3----------|      x2
E|--3-----------------------------------------------|
comments
print report bad tab
7 comments total. Showing first comments.
0 reply
Sweet Laddio wrote on December 26 2013, 10:22 am

Great tab, capo on 2 though.

+1 reply
anniboli wrote on December 27 2013, 02:36 pm

oh shit i forgot to put that, actually it's capo 3 in Eb standard but same thing I guess

+2 reply
Bassellope wrote on January 12 2014, 05:07 pm

e|------------------------------------2--2--|
B|--------3\1--------1p0--------3-----3-----|
G|---------------------------2-----2--2-----|
D|-----0----------0-------0-----------0-----|
A|--0----------0----------------------------|
E|------------------------------------------|

Give this a shot, kind of hard to catch it in the song. Also the ending instead of the C lick, try this:

e|------------------|
B|------------------|
G|-------------7----|
D|-------4-5-7---4--|
A|--3/5-------------|
E|------------------|

Not 100% sure on it but it's close. Other than that it's perfect, great work!

I want to post or [tab]
guest
You may want to rate the tab now too:
select rating
Please do not post tabs as comments. Select "correction" instead!