Oops, an error
Loading. Please wait.

Coals ukulele

version 1
version 1

Whole song

  • Simple ukulele chords to play coals. Tune down a w... Show more

Interactive

1,168 views 9 this week
1 commentread comment
1 2 3 4 5
x 4
add to favorites
×
Save as Personal and add changes to this tab that will be seen only by you. Learn more ›
×
You can save this tab as Personal to edit and correct it or add notes. All changes will be seen only by you. Learn more »
launch autoscroll
font size
0
reset
transpose
0
reset
display chords
guitar tuner
edit
Autoscroll
slow
fast
+/-
esc
set tempo
stop
Author
Difficulty
intermediate
Strumming
There is no strumming pattern for this song yet. and get +5 IQ
Modern Baseball- Coals
This is my first ukulele tab! Please feel free to make corrections and Email me  @ JaredElchik@gmail.com
With any questions! :)


[Verse 1]
Dead dreams and debauchery scenes...
A|---0h2-4-0-----7-4--------5p4-----5p4-|
E|-------------4----------2-------2-----|
C|-----------1----------2-------2-------|
G|-2------------------------------------| x5

Guess I got a lot to learn
                              (E)
A|---7--7\5----7-5p4----2-7-2--2---------------------------|
E|-7---------7--------0--------0---------------------------|
C|-----------------------------4---------------------------|
G|-----------------------------1---------------------------|

[Verse 2]
Eight hours on the top of a bus...
A|---0h2-4-0-----7-4--------5p4-----5p4-|
E|-------------4----------2-------2-----|
C|-----------1----------2-------2-------|
G|-2------------------------------------| x7

We will never ever let it go out
                              (E)
A|---7--7\5----7-5p4----2-7-2--2---------------------------|
E|-7---------7--------0--------0---------------------------|
C|-----------------------------4---------------------------|
G|-----------------------------1---------------------------|

Open doors and sweat soaked floors...
A|---0h2-4-0-----7-4--------5p4-----5p4-|
E|-------------4----------2-------2-----|
C|-----------1----------2-------2-------|
G|-2------------------------------------| x7

You will never be angry again after this
                              (E)
A|---7--7\5----7-5p4----2-7-2--2---------------------------|
E|-7---------7--------0--------0---------------------------|
C|-----------------------------4---------------------------|
G|-----------------------------1---------------------------|

[Chorus]
A                  D
 Kicked out of the liquor store
          F#m                           D    
But we're not the type of guys to fall asleep on the floor anyway
A                       D
 "You wanna join me for dinner?"
                      F#m
"Man I got so much to do"
                     D
But never once did I expect it not to tear me in two

A                    D        
 I'm alright and I'm always getting better
        F#m                     D
Let the fire burn high cause we like it that way
           A   
We let the ash flow down
    D                       F#m
Our throats so stout but we don't mind the burn
        E                     A
We will never ever let it go out

[Outro]
A|---0h2-4-0-----7-4--------5p4-----5p4-|
E|-------------4----------2-------2-----|
C|-----------1----------2-------2-------|
G|-2------------------------------------| x2


************************************

| h  Hammer-on
| p  Pull-off
| \  Slide down

************************************

            
            
Suggest correction
Creating personal tab
Creating personal tab
You can edit any tab online and save it as your Personal.

You can edit, replace or remove any tab part or add personal notes – all changes will be seen only by you.

Personal tabs can be accessed anytime from any device, even offline.
Learn more »
comments
print report bad tab
1 comment total.
0 reply
fletcher.harold.oakes 204 Jul 22, 2016 06:32 PM

It's close to the recording, but not quite close enough. Great first attempt though! I wish I could offer more specific notes haha

guest
You may want to rate the tab now too:
select rating
Wanna post a correction for this tab? Suggest correction