Oops, an error
Loading. Please wait.

Cooke Bass

244 views 6 this week
no commentswrite comment
1 2 3 4 5
1 last vote to show rating
add to favorites
×
Save as Personal and add changes to this tab that will be seen only by you. Learn more ›
×
You can save this tab as Personal to edit and correct it or add notes. All changes will be seen only by you. Learn more »
save as personal
new!
launch autoscroll
font size
0
reset
guitar tuner
Autoscroll
slow
fast
+/-
esc
set tempo
stop
Author
Difficulty
Tuning
novice
E A D G
About this tab version
First bass tab of this song. Was this info helpful? Yes No
Intro:
G|--------------------|----------------------|---------------------|-----------------|
D|--------------------|----------------------|---------------------|-----------------|
A|-6-6---1-1---2---5--|-6-6---1-1------------|-6-6---8-8---9-9-9-9-|-2-2-2-2-2-------|
E|--------------------|-------------4-4-4-4--|---------------------|-----------------|

[Verse]
0:16
"I'm circling the drain"
G|--------------------|----------------------|---------------------|-----------------|
D|--------------------|----------------------|---------------------|-----------------| x2
A|-6-6---1-1---2---5--|-6-6---1-1------------|-6-6---8-8---9-9-9-9-|-2-2-2-2-2-------|
E|--------------------|-------------4-4-4-4--|---------------------|-----------------|

[Chorus]
0:49
G|------------------------------|
D|------------------------------|   x3
A|-----------------2---2-2-2-2--|
E|---2---2-2-2-2----------------|

G|-----------------------------------------------------|
D|-----------------------------------------------------|
A|-----------------2---2-2-2-2----------------------5-5|
E|---2---2-2-2-2-----------------4---4-4-4-4---2-2-----|

[Verse]
1:04
"closet weather at best..."
G|--------------------|----------------------|---------------------|-----------------|
D|--------------------|----------------------|---------------------|-----------------| x2
A|-6-6---1-1---2---5--|-6-6---1-1------------|-6-6---8-8---9-9-9-9-|-2-2-2-2-2-------|
E|--------------------|-------------4-4-4-4--|---------------------|-----------------|

[Bridge]
1:38
"maybe its just my luck..."
G|------------------------------|
D|------------------------------|     x3
A|-----------------2---2-2-2-2--|
E|---2---2-2-2-2----------------|

G|-----------------------------------------------------|
D|-----------------------------------------------------|
A|-----------------2---2-2-2-2-------------------------|
E|---2---2-2-2-2-----------------4---4-4-4-4---2-2---4-|

G|------------------------------|
D|------------------------------|
A|-----------------2---2-2-2-2--|
E|---2---2-2-2-2----------------|

G|---------------------------------------------------------------------------|
D|---------------------------------------------------------------------------|
A|-----------------5---5-5-5-5---4---4-4-4-4---2---2-2-2-2---4---4-4-4-4---2-|
E|---2---2-2-2-2-------------------------------------------------------------|
Suggest correction
Give kudos to tab author, rate the tab!
1 2 3 4 5
comments
print report bad tab
guest
You may want to rate the tab now too:
select rating
Wanna post a correction for this tab? Suggest correction