Oops, an error
Loading. Please wait.

Fine Great tab

version 3
version 3

Whole song

Video

1,727 views 18 this week
no commentswrite comment
1 2 3 4 5
x 3
add to favorites
×
Save as Personal and add changes to this tab that will be seen only by you. Learn more ›
×
You can save this tab as Personal to edit and correct it or add notes. All changes will be seen only by you. Learn more »
launch autoscroll
font size
0
reset
how to read this tab
guitar tuner
edit
Autoscroll
slow
fast
+/-
esc
set tempo
stop
Tuning: Eb (Half-step down from standard)


I hate worrying about the future...
(All downstrokes, only upstroke when changing chord)
      X8 X8 X8 X8
eb|----0--0--0--0-------------------------------------------------------------|
Bb|----0--0--2--1-------------------------------------------------------------|
Gb|----1--2--2--2-------------REPEAT-X4---------------------------------------|
Db|----2--2--2--2-------------------------------------------------------------|
Ab|----2--0--0--0-------------------------------------------------------------|
Eb|---------------------------------------------------------------------------|


Guitar Bit
*Only play (5\) (7\) (6\) on first line
eb|-------------------------------------------------------------------------------|
Bb|-------------------------------------------------------------------------------|
Gb|----9-x-9-9--x--8-x-8-8/9--x--6-x-6-6-(6\)--9-8-888-----------REPEAT-X2--------|
Db|----9-x-9-9--x--9-x-9-9-9--x--7-x-7-7-(7\)--9-9-999----------------------------|
Ab|----7-x-7-7--x--6-x-6-6/7--x--x-x-x-x-(x\)--7-6-666----------------------------|
Eb|------------------------------5-x-5-5-(5\)-------------------------------------|


I'm so tired, or maybe just bored...
(Listen for strumming pattern. Palm mute and gradually lift off in the end of the second repeat)
      X8 X8 X8 X8
eb|----0--0--0--0-------------------------------------------------------------|
Bb|----0--0--2--1-------------------------REPEAT-X4---------------------------|
Gb|----1--2--2--2-------------------------------------------------------------|
Db|----2--2--2--2-------------------------------------------------------------|
Ab|----2--0--0--0-------------------------------------------------------------|
Eb|---------------------------------------------------------------------------|


"I'm guilty as charged"                                           | Outro into chorus
       X8   X8   X8                                    |          |  X16  X8  X8
eb|----------------------------------------------------|--7~------|----0---0---0---|
Bb|-------------------9-4-444--------------------------|--4~------|----0---2---1---|
Gb|-----9----4----4---9-4-444--------REPEAT-X4---------|--4~------|----2---2---2---|
Db|-----6----1----2---x-x-xxx--------------------------|--4~------|----2---2---2---|
Ab|-----7----2----0---7-2-222--------------------------|----------|----0---0---0---|
Eb|----------------------------------------------------|----------|----------------|
If you have trouble hitting those two quick chords in the previous bit, you can play the 799 and the 698 from 
the verse instead - it's a little easier.


"I hate worrying about the future..."
*Listen out for the changes in strumming pattern (first line especially)
      X8 X8 X8 X8
eb|----0--0--0--0-------------------------------------------------------------|
Ab|----0--0--2--1-------------------------------------------------------------|
Gb|----1--2--2--2-------------REPEAT-UNTIL-DONE-------------------------------|
Db|----2--2--2--2-------------------------------------------------------------|
Ab|----2--0--0--0-------------------------------------------------------------|
Eb|---------------------------------------------------------------------------|

Comments/corrections more than welcome
~DR
-----------------
| /   slide up
| \   slide down
| x   Mute note
-----------------

Lyrics:

I hate worrying about the future
Cause all my current problems are based around the past
And I hate when you call me late at night
Just to check in to make sure I got nothing to be sad about
But it's alright
And I'm okay
I won't need your help, anyway
Ah, well
I hate having to think about my future
When all I wanna do is worry about everyone but me

I'm so tired
Or maybe just bored
I can't really tell the difference whenever I'm talking to you
And I know that
You just adore
Starting off with me, that way that there's no way that I'll assume
That you're wasting
All of my time
To vent about your problems like how your Instagram stopped working
And how your friends
Bailed on you
But it was funny cause it was the day you were supposed to hang with me

(Yeah... about that...)

I'm guilty as charged for leading you on
A lie that I know is easy to see
But it's crucial to blot out any
Signs that I might have feelings
This way you don't ask me how am I
This way you won't force me to proceed
With actually having to tell you my worries
With actually having you give a damn about me
You giving a damn about

I hate worrying about the future
Cause all my fucking problems are based around the past
And I hate when you call me late at night
Just to check in to make sure I got nothing to be sad about
But it's alright
And I'm okay
I won't need your help anyway
Ah, well
I hate having to think about my future
When all I wanna do is worry about everyone but me

            
            
Suggest correction
Creating personal tab
Creating personal tab
You can edit any tab online and save it as your Personal.

You can edit, replace or remove any tab part or add personal notes – all changes will be seen only by you.

Personal tabs can be accessed anytime from any device, even offline.
Learn more »
Give kudos to tab author, rate the tab!
1 2 3 4 5
comments
print report bad tab
guest
You may want to rate the tab now too:
select rating
Wanna post a correction for this tab? Suggest correction