Oops, an error
Loading. Please wait.

Hours Outside In The Snow Bass Tab

49 views 3 this week
no commentswrite comment
1 2 3 4 5
x 3
add to favorites
launch autoscroll
font size
0
reset
guitar tuner
Autoscroll
slow
fast
+/-
esc
set tempo
stop
Help us to improve Ultimate-Guitar.com Take our survey!
×
Author
Difficulty
novice
About this tab version
First bass tab of this song. Was this info helpful? Yes No
[Intro]
0:19
G|---------------------------------------------------------------------------|
D|---------------------------------------------------------------------------|
A|---------------------------------------------------------------6-8-6-------|
E|---4(x12)---8(x4)---9(x12)---8(x4)---6(x12)---8(x4)---9(x12)---------9-----|

[Verse]
0:30
"I spent all of Christmas eve trying..."
G|---------------------------------------------------------------------------|
D|---------------------------------------------------------------------------|            x2
A|---------------------------------------------------------------------------|
E|---4(x12)---8(x4)---9(x12)---8(x4)---6(x12)---8(x4)---9(x12)---8(x4)-------|    

G|---------------------------------------------------------------------------|
D|---------------------------------------------------------------------------|
A|---------------------------------------------------------------------------|
E|---4(x6)------------9(x12)---8(x4)---6(x12)---8(x4)---9(x16)---------------|

[Chorus]
1:07
"You might run"
G|---------------------------------------------------------------------------|
D|---------------------------------------------------------------------------|
A|---------------------------------------------------------------------------|
E|---4(x3)------9(x3)------6(x3)------9(x3)----------------------------------|

[Post-Chorus]
1:20
G|---------------------------------------------------------------------------|
D|---------------------------------------------------------------------------|
A|---------------------------------------------------------------6-8-6-------|
E|---4(x12)---8(x4)---9(x12)---8(x4)---6(x12)---8(x4)---9(x12)---------9-----|

[Verse]
1:30
"And Though I'd like to stay warm..."
G|---------------------------------------------------------------------------|
D|---------------------------------------------------------------------------|
A|---------------------------------------------------------------------------|
E|---4(x12)---8(x4)---9(x12)---8(x4)---6(x12)---8(x4)---9(x12)---8(x4)-------|

G|---------------------------------------------------------------------------|
D|---------------------------------------------------------------------------|
A|---------------------------------------------------------------------------|
E|---4(x12)---8(x4)---9(x12)---8(x4)---6(x12)---8(x4)---9(x16)---------------|

[Chorus]
1:56
"You Might Run"
G|---------------------------------------------------------------------------|
D|---------------------------------------------------------------------------|           x2
A|---------------------------------------------------------------------------|
E|---4(x3)------9(x3)------6(x3)------9(x3)----------------------------------|

[Outro]
2:20
"if you wear it"
G|---------------------------------------------------------------------------|
D|---------------------------------------------------------------------------|
A|-----------------------------------------------6-8-6-----------------------|
E|---4---4-4---8-9---9-9---8-6---6-6---8-9---9-9-------9---------------------|

G|---------------------------------------------------------------------------|
D|---------------------------------------------------------------------------|           x3
A|---------------------------------------------------------------------------|
E|---4---4-4---8-9---9-9---8-6---6-6---8-9---9-9---8-------------------------|
Suggest correction
Give kudos to tab author, rate the tab!
1 2 3 4 5
comments
print report bad tab
guest
You may want to rate the tab now too:
select rating
Wanna post a correction for this tab? Suggest correction