Oops, an error
Loading. Please wait.

I Think You Were In My Profile Picture Once tab

version 3
version 3

Whole song

Interactive

763 views 18 this week
1 commentread comment
1 2 3 4 5
x 3
add to favorites
×
Save as Personal and add changes to this tab that will be seen only by you. Learn more ›
×
You can save this tab as Personal to edit and correct it or add notes. All changes will be seen only by you. Learn more »
launch autoscroll
font size
0
reset
how to read this tab
guitar tuner
edit
Autoscroll
slow
fast
+/-
esc
set tempo
stop
About this tab version
It's the only complete version with both guitar parts. Was this info helpful? Yes No
This is the complete and accurate version of this tab with BOTH guitar parts, 
watching them play it live helped figure both parts out.
Special thanks to 'anniboli 215' for the work on their version of the tab!

TUNING: C# G# C# F# A# C#

INTRO both guitars
C#|--------------------------------------------------------------------------|
A#|--------------------------------------------------------------------------|
F#|--------------------------------------------------------------------------|
C#|--------4--------4--------4--------4--------4--------4--------4--------4--|
G#|-----5--------5--------5--------5--------5--------5--------5--------5-----|
C#|--5--------5--------5--------5--------5--------5--------5--------5--------|

VERSE 1 guitar 1
C#|--------------------------------------------------------------------------|
A#|--------------------------------------------------------------------------|
F#|--------2--------2--------2--------2--------2--------2--------2--------2--|
C#|-----4--------4--------4--------4--------4--------4--------4--------4-----|
G#|--5--------5--------5--------5--------------------------------------------|
C#|--------------------------------------5--------5--------5--------5--------| x2

VERSE 1 guitar 2
C#|--------------------------------------------------------------------------|
A#|--------------------------------------------------------------------------|
F#|--------------------------------------------------------------------------|
C#|--------4--------4--------4--------4--------4--------4--------4--------4--|
G#|-----5--------5--------5--------5--------5--------5--------5--------5-----|
C#|--0--------0--------0--------0--------5--------5--------5--------5--------| x2

PRE-CHORUS 1 guitar 1
C#|--------------------------------------|
A#|--------------------------------------|
F#|--------2--------2--------2--------2--|
C#|-----4--------4--------4--------4-----|
G#|--5--------5--------5--------5--------|
C#|--------------------------------------| 

PRE-CHORUS 1 guitar 2
C#|--------------------------------------|
A#|--------------------------------------|
F#|--------------------------------------|
C#|--------4--------4--------4--------4--|
G#|-----5--------5--------5--------5-----|
C#|--0--------0--------0--------0--------|

CHORUS 1 guitar 1
C#|--------------------------------------|      
A#|--------3--------3--------3--------3--|
F#|-----2--------2--------2--------2-----|
C#|--4--------2--------0--------0--------|
G#|--------------------------------------|
C#|--------------------------------------| x3

CHORUS 1 guitar 2
C#|--------------------------------------|
A#|--------------------------------------|
F#|--------------------------------------|
C#|--------0--------0--------0--------0--|
G#|-----9--------7--------5--------5-----|
C#|--9--------7--------5--------5--------| x3

CHORUS ENDING guitar 1
C#|--------------------|        
A#|--------3--------3--|
F#|-----2--------2-----|
C#|--0--------0--------|
G#|--------------------|
C#|--------------------|
CHORUS ENDING guitar 2
C#|--------------------|
A#|--------------------|
F#|--------------------|
C#|--------0--------0--|
G#|-----5--------5-----|
C#|--5--------5--------|

VERSE 2 guitar 1
C#|--------------------------------------------------------------------------|
A#|--------3--------3--------3--------3--------3--------3--------3--------3--|
F#|--------------------------------------------------------------------------|
C#|-----4--------4--------4--------4--------4--------4--------4--------4-----|
G#|--5--------5--------5--------5--------------------------------------------|
C#|--------------------------------------5--------5--------5--------5--------| x2

VERSE 2 guitar 2
C#|--------------------------------------------------------------------------|
A#|--------------------------------------------------------------------------|
F#|--------------------------------------------------------------------------|
C#|--------4--------4--------4--------4--------4--------4--------4--------4--|
G#|-----5--------5--------5--------5--------5--------5--------5--------5-----|
C#|--0--------0--------0--------0--------5--------5--------5--------5--------| x2

PRE-CHORUS 2 guitar 1
C#|--------------------------------------|
A#|--------3--------3--------3--------3--|
F#|--------------------------------------|
C#|-----4--------4--------4--------4-----|
G#|--5--------5--------5--------5--------|
C#|--------------------------------------| 

PRE-CHORUS 2 guitar 2
C#|--------------------------------------|
A#|--------------------------------------|
F#|--------------------------------------|
C#|--------4--------4--------4--------4--|
G#|-----5--------5--------5--------5-----|
C#|--0--------0--------0--------0--------|

CHORUS 2 guitar 1
C#|--------------------------------------|      
A#|--------3--------3--------3--------3--|
F#|-----2--------2--------2--------2-----|
C#|--4--------2--------0--------0--------|
G#|--------------------------------------|
C#|--------------------------------------| x2

CHORUS 2 guitar 2
C#|--------------------------------------|
A#|--------------------------------------|
F#|--------------------------------------|
C#|--------0--------0--------0--------0--|
G#|-----9--------7--------5--------5-----|
C#|--9--------7--------5--------5--------| x2

CHORUS ENDING guitar 1
C#|--------------------0--|     
A#|--------3--------3--3--|
F#|-----2--------2-----2--|
C#|--4--------2--------0--|
G#|-----------------------|
C#|-----------------------| 

CHORUS ENDING guitar 2
C#|-----------------------|
A#|-----------------------|
F#|--------------------0--|
C#|--------0--------0--0--|
G#|-----9--------7-----5--|
C#|--9--------7--------5--| 



            
            
Suggest correction
Creating personal tab
Creating personal tab
You can edit any tab online and save it as your Personal.

You can edit, replace or remove any tab part or add personal notes – all changes will be seen only by you.

Personal tabs can be accessed anytime from any device, even offline.
Learn more »
Give kudos to tab author, rate the tab!
1 2 3 4 5
comments
print report bad tab
1 comment total.
+1 reply
Mike Saikaley 284 Feb 19, 2017 02:59 AM

This tab changed my life. Thank you

guest
You may want to rate the tab now too:
select rating
Wanna post a correction for this tab? Suggest correction