Oops, an error
Loading. Please wait.

Look Out Bass Tab

16 views 3 this week
no commentswrite comment
1 2 3 4 5
3 more votes to show rating
add to favorites
launch autoscroll
font size
0
reset
guitar tuner
Autoscroll
slow
fast
+/-
esc
set tempo
stop
Help us to improve Ultimate-Guitar.com Take our survey!
×
Author
Difficulty
novice
-------------------------------------------------------------------------------
                             Look Out - Modern Baseball
-------------------------------------------------------------------------------
Tuning: Standard

[Verse]
0:17
"Heads up because I'm always moving forward..."
G|------------------------------------------------------|
D|------------------------------------------------------|     x2
A|---4-4-------4-4-------4-4-------4-4--3-3-------------| 
E|--------4-4-------4-4-------4-4------------4-4--4-4---|

[Chorus]
0:33
"Yeah I said that I'm always moving forward"
G|-------------------------------------------|
D|-------------------------------------------|         x2
A|---4---4-4---------------------------------| 
E|-------------4---4-4---6---6-6---6---6-6---|
Suggest correction
Give kudos to tab author, rate the tab!
1 2 3 4 5
comments
print report bad tab
guest
You may want to rate the tab now too:
select rating
Wanna post a correction for this tab? Suggest correction