Oops, an error
Loading. Please wait.

My Love tab

6,316 views 51 this week
2 commentsread comments
1 2 3 4 5
x 9
add to favorites
×
Save as Personal and add changes to this tab that will be seen only by you. Learn more ›
×
You can save this tab as Personal to edit and correct it or add notes. All changes will be seen only by you. Learn more »
launch autoscroll
font size
0
reset
how to read this tab
guitar tuner
edit
Autoscroll
slow
fast
+/-
esc
set tempo
stop
-------------------------------------------------------------------------------
                             MY LOVE - Modern Baseball
-------------------------------------------------------------------------------
Tabbed by: Ariel Rubio
E-mail:allonsyariel@gmail.com

Tuning: Half Step Down (D#G#C#F#A#D#)


[Verse 1]

[RHYTHM](Play each power chord 3 times)

e|-------------------------------|
B|-------------------------------|
G|-------------------------------|   play this up until the chorus
D|-7--7--7--7--------------------|
A|-5--4--x--x-9-7-5--5--5--5--7--|
E|-------7--5--------3--2--3--5--|

[LEAD]

e|---------------------------------------------------------------------------|
B|---------------------------------------------------------------------------|
G|---------------------------------------------------------------------------|
D|---0-4-0---0---0-4-0---0---0-4-0---0-----7-5-4-----0-4-0---0---0-4-0---0---|
A|-5-------5---4-------4---2-------2---0-------------------------------------|
E|-------------------------------------------------3-------3---2-------2-----|

e|---------------------------|
B|---------------------------|
G|----------------0---0---0--|
D|---0-4-0---0--5---4---2----|
A|---------------------------|
E|-3-------3-----------------|


[Chorus]

[RHYTHM]

e|---------------------------------------------------------------------------|
B|---------------------------------------------------------------------------|
G|---------------------------------------------------------------------------|
D|---0-4-0---0---0-4-0---0---0-4-0---0---0-2-4-2-0---0-4-0---0---0-4-0---0---|
A|-5-------5---4-------4---2-------2---0-------------------------------------|
E|-------------------------------------------------3-------3---2-------2-----|

e|---------------------------|
B|---------------------------|
G|----------------0---0---0--|
D|---0-4-0---0--5---4---2----|
A|---------------------------|
E|-3-------3-----------------|

[LEAD](Play each dingaling 6x)

e|---------------------------------------------------------------------------|
B|---------------------------------------------------------------------------|
G|-2--6--7--9--x2--11---9--12--11--2--6--7--9--------------------------------|
D|-0--0--0--0------12--12--12--12--0--0--0--0--------------------------------|
A|---------------------------------------------------------------------------|
E|---------------------------------------------------------------------------|


[Verse 2]

[RHYTHM] (Play each power chord three times)

e|-------------------------------|
B|-------------------------------|
G|-7--6--7--7--------------------|
D|-7--7--7--7--------5--4--5--7--| play up until chorus
A|-5--4--x--x-9-7-5--5--5--5--7--|
E|-------7--5--------3--2--3--5--|

[Chorus]

[RHYTHM]

e|---------------------------------------------------------------------------|
B|---------------------------------------------------------------------------|
G|---------------------------------------------------------------------------|
D|---0-4-0---0---0-4-0---0---0-4-0---0---0-2-4-2-0---0-4-0---0---0-4-0---0---|
A|-5-------5---4-------4---2-------2---0-------------------------------------|
E|-------------------------------------------------3-------3---2-------2-----|

e|---------------------------|
B|---------------------------|
G|----------------0---0---0--| play this the entire chorus
D|---0-4-0---0--5---4---2----|
A|---------------------------|
E|-3-------3-----------------|

[LEAD](Play each dingaling 6x)

e|---------------------------------------------------------------------------|
B|---------------------------------------------------------------------------|
G|-2--6--7--9--x2--11---9--12--11--2--6--7--9--------------------------------|
D|-0--0--0--0------12--12--12--12--0--0--0--0--------------------------------| play this the
A|---------------------------------------------------------------------------| entire chorus
E|---------------------------------------------------------------------------|

[LEAD II]

e|---------------------------------------------------------------------------|
B|-----3-------3-------3------------------3-------3-------3------------------|
G|---2-------2-------2------------------2-------2-------2-------0---0---0----| start  playing
D|-0-------------------------0-2-4-0--------------------------5---4---2------| about halfway
A|---------4-------2-------0-------------------------------------------------|through the chorus
E|------------------------------------3-------2-------3----------------------|

[Outro]

[RHYTHM]

e|---------------------------------------------------------------------------|
B|---------------------------------------------------------------------------|
G|---------------------------------------------------------------------------|
D|---0-4-0---0---0-4-0---0---0-4-0---0---0-2-4-2-0---0-4-0---0---0-4-0---0---|
A|-5-------5---4-------4---2-------2---0-------------------------------------|
E|-------------------------------------------------3-------3---2-------2-----|

e|---------------------------|
B|---------------------------|
G|----------------0---0---0--| play this until the end
D|---0-4-0---0--5---4---2----|
A|---------------------------|
E|-3-------3-----------------|

[LEAD]

e|---------------------------------------------------------------------------|
B|-----3-------3-------3------------------3-------3-------3------------------|
G|---2-------2-------2------------------2-------2-------2-------0---0---0----| start playing when
D|-0-------------------------0-2-4-0--------------------------5---4---2------| bren sings 'my
A|---------4-------2-------0-------------------------------------------------| love'
E|------------------------------------3-------2-------3----------------------|

[LEAD II]

e|-------------|
B|-------------|
G|-7-xforever--|
D|-7-----------|
A|-------------|
E|-------------|

[LEAD III] (play each dingaling x6)

e|-------------|
B|-7--5--8--7--|
G|-7--7--7--7--| xforever
D|-------------|
A|-------------|
E|-------------|

end on D

e|-2--|
B|-3--|
G|-2--|
D|-0--|
A|----|
E|----|



************************************

| x  Dead note

************************************

            
            
Suggest correction
Creating personal tab
Creating personal tab
You can edit any tab online and save it as your Personal.

You can edit, replace or remove any tab part or add personal notes – all changes will be seen only by you.

Personal tabs can be accessed anytime from any device, even offline.
Learn more »
comments
print report bad tab
2 comments total.
+1 reply
PlainOlBrod 54 Aug 10, 2016 02:24 PM

Great tab! I couldn't find it at first though because you've called it 'My Love Tab'. I'd just recommend renaming it to My Love so more people can find it. Good job!

guest
You may want to rate the tab now too:
select rating
Wanna post a correction for this tab? Suggest correction