Oops, an error
Loading. Please wait.

Play Ball Bass Tab

28 views 3 this week
no commentswrite comment
1 2 3 4 5
3 more votes to show rating
add to favorites
launch autoscroll
font size
0
reset
guitar tuner
Autoscroll
slow
fast
+/-
esc
set tempo
stop
Help us to improve Ultimate-Guitar.com Take our survey!
×
Author
Difficulty
novice
About this tab version
First bass tab of this song. Was this info helpful? Yes No
-------------------------------------------------------------------------------
                                Play Ball
-------------------------------------------------------------------------------
Tuning: Standard

[Verse]
0:37
"This compilation of sayings and tunes..."
G|-----------------------------------------------------------------------------|
D|--------------------------------------------------------------------1-4------|
A|----------------------------------------------------------------2-4----------|
E|---2---2---2-2-2-2---2---2---2-2-2-2---2---2---2-2-2-2--2---2----------------|

G|----------------------------------------------|
D|----------------------------------------------|
A|---6---6---6-6-6-6---6---6---6-6-6-6---2------|
E|----------------------------------------------|

G|------------------------------------------------------------------|
D|------------------------------------------------------------------|
A|------------------------------------------------------------4--1--|
E|---2--2--2-2-2-2---2---2--2-2-2-2---2---2--2-2-2-2---4---4--------|

G|------------------------------------------------------------------------|
D|------------------------------------------------------------------------|
A|---6--6--6-6-6-6---6---6---6-6-6-6---2---2---2-2-2-2---2---2---2-2-2-2--|
E|------------------------------------------------------------------------|

1:01
"I Shouldn't have to sing..."
G|-----------------------------------------3--1------------------------------|
D|----------------------------------------------4----------------------------|
A|---4-4---4-4---4-4---4-4---6-6---6-6---6---------1-1---1-1---1-1---1-1---2-|
E|---------------------------------------------------------------------------|

G|--------------------------------------------------------------------------------------------------|
D|--------------------------------------------------------------------------------------------------|
A|----------------------------------------------1--1---2---2---2-2-2--2---2-2-2--2---2-2-2--2---2-2-|
E|---2---2---2-2-2--2---2-2-2--2---2-2-2--2--2------------------------------------------------------|

G|------------------------------------------------------------------------------------------------|
D|------------------------------------------------------------------------------4-----------------|
A|----------------------------------------------1--1---2---2---2-2-2--2---2-2-2----2-2-2--2---2-2-|
E|---2---2---2-2-2--2---2-2-2--2---2-2-2--2--2----------------------------------------------------|

G|--------------------------------------------------------------------------------------------------|
D|--------------------------------------------------------------------------------------------------|
A|----------------------------------------------1--1---2---2---2-2-2--2---2-2-2--2---2-2-2--2---2-2-|
E|---2---2---2-2-2--2---2-2-2--2---2-2-2--2--2------------------------------------------------------|

G|-------------------------------------------------------------------------------------|
D|-------------------------------------------------------------------------------------|
A|---------------------------------------------1--1---2---2---2-2-2--2----2----2----2--|
E|---2---2---2-2-2--2---2-2-2--2---2-2-2--2--2-----------------------------------------|
Suggest correction
Give kudos to tab author, rate the tab!
1 2 3 4 5
comments
print report bad tab
guest
You may want to rate the tab now too:
select rating
Wanna post a correction for this tab? Suggest correction