Oops, an error
Loading. Please wait.

Re-Do Tab

version 2
version 2

Whole song

Interactive

3,459 views 24 this week
no commentswrite comment
1 2 3 4 5
x 3
add to favorites
launch autoscroll
font size
0
reset
how to read this tab
guitar tuner
Autoscroll
slow
fast
+/-
esc
set tempo
stop
Help us to improve Ultimate-Guitar.com Take our survey!
×
Author
Re-Do
Modern Baseball

   A: |x02220|
Ab/A: |4x2220|
 F#m: |244222|
   F: |133211|
 C#m: |x46654|


Intro
e|-----------------------------------------------------------|
B|--------------5-------------------5---------------5--------|
G|--------6---6---6---6--2X---6---6---6---6---6---6---6------|
D|------7---7-------7----------------------------------------|
A|--------------------------4---4-------4---4---4-------4\---|
E|-----------------------------------------------------------|

e|------------------------------------------------------0~---|
B|-----------2--------------------1---------------0-----0~---|
G|-----2---2---2---2-2X-----2---2---2---2-------1---1---1~---|
D|---0---0-------0--------3---3-------3-------2---------2~---|
A|------------------------------------------------------X----|
E|------------------------------------------------------X----|

I wanna start from the top, maybe like a do-over
replace the voices in my head with blind innocence

                   A                   Ab/A 
I wanna complete re-do, maybe change my name
  F#m             F              Bm                Bb
Report the loses, grab the claim, it’s a shame man, such a shame
      A                                 Ab/A                              
We’re pissing away our time cause we’re pissing away these beers
   F#m                              
No monumental moment ever came from saying
 F(STOP)
“Come on dude, just take one more shot”

A              C#m               F#m          
Try to, try to forget, that your bones will dismantle
        F              C#m        Bm        A
And the dreams you had they’ll collide with time
                C#m           
Your unrequited love for life will surely….
A             F#m      C#m     Bm
Halt that I’m thinking way too much at night

(muted)
A                                               A   Ab/A F#m              
Maybe I could just move away or go extinct like tri-cera-tops
                                    F                Bm
But I love loving: watching movies, sitting back and also breathing
A                                                    
My family and friends would be crushed, but is it enough
          Ab/A
(No, it's not enough)
     F#m                      
The "future freaks me out" but I guess I could just
F(STOP)
Curl up in a ball and...

(louder)
A              C#m               F#m          
Try to, try to forget, that your bones will dismantle
        F              C#m        Bm        A
And the dreams you had they’ll collide with time
                C#m           
Your unrequited love for life will surely….
A             F#m      C#m     Bm              A(STOP)
Halt that I’m thinking way too much at night
Suggest correction
Give kudos to tab author, rate the tab!
1 2 3 4 5
comments
print report bad tab
guest
You may want to rate the tab now too:
select rating
Wanna post a correction for this tab? Suggest correction