Oops, an error
Loading. Please wait.

Re-Done Bass Tab

version 1
version 1

Whole song

  • First bass tab of this song.

Interactive

58 views 6 this week
no commentswrite comment
1 2 3 4 5
3 more votes to show rating
add to favorites
launch autoscroll
font size
0
reset
guitar tuner
Autoscroll
slow
fast
+/-
esc
set tempo
stop
Help us to improve Ultimate-Guitar.com Take our survey!
×
Author
Difficulty
Tuning
novice
C# G# C# F# A# D#
About this tab version
First bass tab of this song. Was this info helpful? Yes No
[Verse]
0:33
"But I know how you get..."
F#|------------------------|
C#|------------------------|     x2
G#|---5--5-5-5-------------|    
C#|-------------5--5-5-5---| 

F#|---------------------|
C#|---------------------|    x2
G#|---5(x16)------------|    
C#|----------5(x16)-----|

1:04
"But that's when I stopped..."
F#|-------------------------------------------------------------|
C#|-------------------------------------------------------------|     x3
G#|---7-7-7-9-9-9-9-9----5-5-5-7-7-7-7-7-7----------------------|    
C#|------------------------------------------5(x16)-------------| 

F#|-------------------------------------------------------------|
C#|-------------------------------------------------------------|
G#|---7-7-7-9-9-9-9-9-9----5-5-5-7-7-7-7-7----7(x8)-------------|
C#|---------------------------------------------------5---------|

1:42
"cause we all know I lack"
F#|----------------------------------------------------|
C#|----------------------------------------------------|        x4
G#|---5--5-5-5--5-5--4-4--2--2-2-2--2-2----------------|   
C#|--------------------------------------5-5--5-5-5--5-|

1:49
"But now we're down to brass tacks..."
F#|---------------------|
C#|---------------------|        x4
G#|---------------------|     
C#|---2--2-2-5---5--5---| 

[Guitar Solo]
2:07
F#|----------------------------------------------------|
C#|----------------------------------------------------|          x4
G#|---5--5-5-5--5-5--4-4--2--2-2-2--2-2----------------|        
C#|--------------------------------------5-5--5-5-5--5-|

2:23
"You etch these holes in my brain..."
F#|-------------------------------------------|
C#|-------------------------------------------|          x3
G#|---5--5-5-5--5-5--4-4--2--2-2-2--2-2-------|        
C#|--------------------------------------5----|

F#|----------------------------------------------------|
C#|----------------------------------------------------|          x4
G#|---5--5-5-5--5-5--4-4--2--2-2-2--2-2----------------|        
C#|--------------------------------------5-5--5-5-5--5-|

2:38
"I know I'm bad with expectations..."
F#|----------------------------|
C#|----------------------------|        x4
G#|---0(x8)---2(x8)------------|
C#|-------------------5(x16)---|

[Rest]

3:29
(Come in with drums)
F#|----------------------------|
C#|----------------------------|  x6
G#|---2(x8)-----------5(x16)---|
C#|-----------5(x8)------------| 
Suggest correction
Give kudos to tab author, rate the tab!
1 2 3 4 5
comments
print report bad tab
guest
You may want to rate the tab now too:
select rating
Wanna post a correction for this tab? Suggest correction