Oops, an error
Loading. Please wait.

Re-Done Tab

version 1
version 1

Whole song

Interactive

14,420 views 138 this week
5 commentsread comments
1 2 3 4 5
x 14
add to favorites
launch autoscroll
font size
0
reset
how to read this tab
guitar tuner
Autoscroll
slow
fast
+/-
esc
set tempo
stop
Help us to improve Ultimate-Guitar.com Take our survey!
×
Author
Difficulty
Tuning
novice
C# G# C# F# A# D#
"She said lets start from the top..."
D#|----------------------------------------------------|
A#|----------------------------------------------------|
F#|----------------------------------------------------|
C#|-7--4--5--4--4--------------------------------------|
G#|-9--5--7--5--5--------------------------------------|
C#|-0--0--0--0--5--------------------------------------|

(guitar 2 is something arpeggiated along these lines.
Didn't really have time to figure this out but tried to help you guys out a little.)
D#|-------------------------------------|
A#|---7------7-------7------------------|
F#|--7------7--or---7-------------------|
C#|-0------5-------7--------------------|
G#|-------------------------------------|
C#|-------------------------------------|

"But thats when i stopped to listen or care..."
D#|-----------------------------------------|
A#|-----------------------------------------|
F#|-6-----4--4--7---------------------------|
C#|-7--9--5--5--7---------------------------|
G#|-7--9--5--5--5---------------------------|
C#|-7--9--4--5--0---------------------------|

"...when I couldn't conjure words..."
D#|-----------------------------------------|
A#|-----------------------------------------|
F#|-6-----4--4--1----4----------------------|
C#|-7--9--5--5--2----5----------------------|
G#|-7--9--5--5--2----5----------------------|
C#|-7--9--4--5--2----5----------------------|

"...in the field of conversing correctly..."
D#|-----------------------------------------|
A#|-----------------------------------------|
F#|--7--7--4--4-----------------------------|
C#|--7--7--4--5-----------------------------|
G#|--5--4--2--5-----------------------------|
C#|--0--0--0--5-----------------------------|

"But now were down to brass tax..."
D#|-------------------------------------------------------------|
A#|-------------------------------------------------------------|
F#|-------------------------------------------------------------|
C#|-2--5--2--5---x----------------------------------------------|
G#|-2--5--2--5---x-strum mute strings at the end of this--------|
C#|-2--5--2--5---x----------------------------------------------|

*During the solo do this again and keep going for "You etched holes in my brain..."
D#|-----------------------------------------|
A#|-----------------------------------------|
F#|--7--7--4--4-----------------------------|
C#|--7--7--4--5-----------------------------|
G#|--5--4--2--5-----------------------------|
C#|--0--0--0--5-----------------------------|

"I know I'm bad with expectations..."
D#|-----------------------------------------|
A#|-----------------------------------------|
F#|-6-----4---------------------------------|
C#|-7--9--5---------------------------------|
G#|-7--9--5---------------------------------|
C#|-7--9--5---------------------------------|

"They don't think we can make this..."
D#|-----------------------------------------|
A#|-----------------------------------------|
F#|--8--4---7-------------------------------|      (Play this until the end)
C#|--9--5---7-------------------------------|
G#|--9--5---5-------------------------------|
C#|--9--5---0-------------------------------|


************************************

| x  Dead note

************************************
Suggest correction
comments
print report bad tab
5 comments total. Showing first comments.
+2 reply
timswatek 10 Jan 13, 2014 06:41 PM

Great tab! But I think the last chord to the intro should be:

C#: 4
G#: 5
(low)C#: 5

Something didn't sound right, so I went to the video you provided and I'm pretty sure I'm correct.

0 reply
Danowa 521 Jan 19, 2014 07:15 PM

Thank you for the correction! This and the second to last chord in the outro I mistakenly wrote 4th fret on the low C# string instead of 5th fret. I'm glad my tab helped you out

0 reply
squishypluto 58 Jun 05, 2014 03:02 PM

|??????????????????????????????????????-|
|??????????????????????????????????????-|
|?-7???14???11???9????7?????????????????|
|?-x???x-???x????x????x?????????????????|
|??5???12???9????7????5???????????-?????|
|????????-?????????????????????????????-|


hey man, try these notes for the solo-ey thing after the "when I couldn't conjure words" part. yours also sounds correct, but I think they use octave chords for that. really good tab though, it helped me out a lot!

guest
You may want to rate the tab now too:
select rating
Wanna post a correction for this tab? Suggest correction