Oops, an error
Loading. Please wait.

See Ya Sucker tab

version 1
version 1

Whole song

2,467 views 12 this week
6 commentsread comments
1 2 3 4 5
x 3
add to favorites
×
Save as Personal and add changes to this tab that will be seen only by you. Learn more ›
×
You can save this tab as Personal to edit and correct it or add notes. All changes will be seen only by you. Learn more »
launch autoscroll
font size
0
reset
how to read this tab
guitar tuner
edit
Autoscroll
slow
fast
+/-
esc
set tempo
stop
-------------------------------------------------------------------------------
                             See YA SUCKeR - Modern Baseball
-------------------------------------------------------------------------------
Tabbed by: Ariel Rubio
e-mail: allonsyariel@gmail.com

Tuning: Half-Step Down (D#G#C#F#A#D#)

Some parts sound a bit odd, and the tabs aren't precise either so.

INTRO/VERSE (I reckon...) Play this up until PRE-CHORUS

e|-----------------------------------------------------------------------------|
B|-----------------------------------------------------------------------------|
G|-----------------------------------------------------------------------------|     
D|-9-9-9-9--9-9--9--9--9--9--9-9-9-9--9-9--9--9--9--9--9-9-9-9--9-9--9--9--9--9|
A|-6-6-6-7--7-7--7--7--7--7--x-x-x-x--x-x--x--x--x--x--x-x-x-x--x-x--x--x--x--x|
E|-0-0-0-0--0-0--0--0--0--0--7-7-7-5--5-5--5--5--5--5--7-7-7-0--0-0--0--0--0--0|

e|-----------------------------------------------------------------------------|
B|-----------------------------------------------------------------------------|
G|-----------------------------------------------------------------------------|
D|-9-9-9-9--9-9--9--9--9--9----------------------------------------------------|
A|-7-7-7-x--x-x--x--x--x--x----------------------------------------------------|
E|-0-0-0-7--7-7--7--7--7--7----------------------------------------------------|

PRE-CHORUS (But I won't fucking wait...)

e|-----------------------|
B|-----------------------|
G|-----------------------|
D|-6-----7-----2---------|  x2
A|-6-x8--7-x8--2-x16-----|
E|-4-----5-----0---------|

(Well I'm just gonna leave)

e|---------------------|
B|-4-4-4-4-5-5-5-5-7---|
G|-x-x-x-x-x-x-x-x-x---|
D|-1-1-1-1-2-2-2-2-4---|
A|---------------------|
E|---------------------|

CHORUS (On the corner of...)

e|-------------------------|
B|-------------------------|
G|-------6-----8-----------|  x2
D|-2-----6-x8--8-x8--7-----|
A|-2-x8--4-----6-----7-x8--|
E|-0-----------------5-----|

POST-CHORUS

e|-----------------------------------------------------------------------------|
B|-----------------------------------------------------------------------------|
G|-----------------------------------------------------------------------------|     
D|-9-9-9-9--9-9--9--9--9--9--9-9-9-9--9-9--9--9--9--9--9-9-9-9--9-9--9--9--9--9|     
A|-7-7-7-7--7-7--7--7--7--7--x-x-x-x--x-x--x--x--x--x--x-x-x-x--x-x--x--x--x--x|
E|-0-0-0-0--0-0--0--0--0--0--7-7-7-5--5-5--5--5--5--5--7-7-7-0--0-0--0--0--0--0|

e|-----------------------------------------------------------------------------|
B|--------------------------12^------------------------------------------------|
G|--------------------------12^------------------------------------------------|
D|-9-9-9-9--9-9--9--9--9----12^------------------------------------------------|
A|-7-7-7-x--x-x--x--x--x-------------------------------------------------------|
E|-0-0-0-0--0-0--0--0--0-------------------------------------------------------|

VERSE 2  (If you get stuck...)

e|---------------------------------------------------------------------------|
B|---------------------------------------------------------------------------|
G|-------2-------------------------------------------------------------------|
D|-2-----2-x8--2-------------------------------------------------------------|
A|-2-x8--0-----2-x16---------------------------------------------------------|
E|-0-----------0-------------------------------------------------------------|

CHORUS (On the corner of...)

e|-------------------------|
B|-------------------------|
G|-------6-----8-----------|  x2
D|-2-----6-x8--8-x8--7-----|
A|-2-x8--4-----6-----7-x8--|
E|-0-----------------5-----|

OUTRO (And I reckon...)

e|-------------------------------------------------------------------------------------|
B|-------------------------------------------------------------------------------------|
G|-------------------------------------------------------------------------------------|
D|-9-9-9-9--9-9--9--9--9--9--9-9-9-9--9-9--9--9--9--9--9-9-9-9---9--9---9---9---9---9--|
A|-7-7-7-7--7-7--7--7--7--7--7-7-7-x--x-x--x--x--x--x--x-x-x-x---x--x---x---x---x---x--|
E|-0-0-0-0--0-0--0--0--0--0--0-0-0-9--9-9--9--9--9--9--9-9-9-11--11-11--11--11--11--11-|

e|---------------------------------------------------------------------------|
B|---------------------------------------------------------------------------|
G|---------------------------------------------------------------------------|
D|-9--9--9--9~---------------------------------------------------------------|
A|-x--x--x--x~---------------------------------------------------------------|
E|-11-11-11-5~---------------------------------------------------------------|


************************************

| /   slide up
| \   slide down
| h   hammer-on
| p   pull-off
| ~   vibrato
| +   harmonic
| x   Mute note
| b   Bend
| pb  Pre-bend
| br  Bend release
| pbr Pre-bend release
| brb Bend release bend

************************************

            
            
Suggest correction
Creating personal tab
Creating personal tab
You can edit any tab online and save it as your Personal.

You can edit, replace or remove any tab part or add personal notes – all changes will be seen only by you.

Personal tabs can be accessed anytime from any device, even offline.
Learn more »
Give kudos to tab author, rate the tab!
1 2 3 4 5
comments
print report bad tab
6 comments total. Showing first comments.
0 reply
yocomedy12 68 Oct 27, 2015 09:21 AM, edited on October 28 2015, 11:31 am

The parts for the chorus are wrong, and there isn't a second guitar part written on here.

guest
You may want to rate the tab now too:
select rating
Wanna post a correction for this tab? Suggest correction