Oops, an error
Loading. Please wait.

See Ya Sucker tab

version 2
version 2

Whole song

553 views 6 this week
no commentswrite comment
1 2 3 4 5
x 3
add to favorites
×
Save as Personal and add changes to this tab that will be seen only by you. Learn more ›
×
You can save this tab as Personal to edit and correct it or add notes. All changes will be seen only by you. Learn more »
launch autoscroll
font size
0
reset
how to read this tab
guitar tuner
edit
Autoscroll
slow
fast
+/-
esc
set tempo
stop
Track: See Ya, Sucker
Artist: Modern Baseball
Album: Sports (2014)
Tuning: Eb Standard (Eb Ab Db Gb Bb eb)

Tabbed by: Noah Maranesi
Website: Instagram.com/n04hz_ark


Guitar 1 - Brendan (left)

Intro (0:00) (exact strumming not shown)

    "I reckon you grew up in a town that said reckon all the time..."
                                                                                                            x2
   B        C#m               G#m       A              B         E                C#m        B              |
e|--------|---------------------------|------------------------|---------------------------|----------------|
B|:-------|---------------------------|------------------------|---------------------------|---------------:|
G|--------|---------------------------|------------------------|---------------------------|----------------|
D|--1-1-1-|-2--2--2--2--2--2----------|------------------------|-6--6--6--6--6--6----------|----------------|
A|:-2-2-2-|-4--4--4--4--4--4--2--2--2-|-4--4--4--4--4--6--6--6-|-7--7--7--7--7--7--7--7--7-|-6--6--6--6--6-:|
E|--------|-------------------4--4--4-|-5--5--5--5--5--7--7--7-|-0--0--0--0--0--0--9--9--9-|-7--7--7--7--7--|


Verse (0:18)

    "Well here goes nothing..."
    Repeat Intro x2


Pre-Chorus (0:38) (exact strumming not shown) (strum each noted chord twice)

    "But I, won't fuckin' wait..."

                                                      x2
 | G#m         | A          | E          | E           | B             |
e|-------------|------------|------------|-------------|---------------|
B|:------------|------------|------------|------------:|---------------|
G|-------------|------------|------------|-------------|---------------|
D|-------------|------------|-6--6--6--6-|-6--6--6--6--|---------------|
A|:-2--2--2--2-|-4--4--4--4-|-7--7--7--7-|-7--7--7--7-:|-6--6--6--6--6-|
E|--4--4--4--4-|-5--5--5--5-|-0--0--0--0-|-0--0--0--0--|-7--7--7--7--7-|


Chorus (0:59) (strum each noted chord twice)

    "On the corner of Canal and Broadway..."


e|--4--4--4--4--4--4--0--0--4--4--4--4--4--4--0--0--|
B|:-5--5--5--5--5--5--2--2--5--5--5--5--5--5--2--2--|
G|--------------------------------------------------|
D|--------------------------------------------------|
A|:-------------------------------------------------|
E|--------------------------------------------------|

                                                   x2
e|--2--2--2--2--2--2--4--4--0--0--0--0--0--0--0--0--|
B|--4--4--4--4--4--4--5--5--2--2--2--2--2--2--2--2-:|
G|--------------------------------------------------|
D|--------------------------------------------------|
A|-------------------------------------------------:|
E|--------------------------------------------------|


Post-Chorus (1:18)

e|----------------------------------------------------|
B|----------------------------------------------------|
G|----------------------8--8--8-/-6--6-6--6--6--6--6--|
D|--6--6-6--6--6--6--6--9--9--9-/-7--7-7--7--7--7--7--|
A|--7--7-7--7--7--7--7--------------------------------|
E|--0--0-0--0--0--0--0--------------------------------|

                                x2
e|-------------------------------|--+7+--|
B|:-9--9--9---------------------:|--+7+--|
G|--9--9--9----------------------|--+7+--|
D|-----------6--6-6--6--6--6--6--|--+7+--|
A|:----------7--7-7--7--7--7--7-:|--+7+--|
E|-----------0--0-0--0--0--0--0--|--+7+--|


Verse 2 (1:28)

    "If you get stuck I'm just gonna go on without you..."
    Repeat Post-Chorus without harmonics (last measure)

Chorus (1:38)
    
    "On the corner of Canal and Broadway..."
    Repeat Chorus

Outro (1:56)

    "And I reckon you grew up in a town..."

e|--4--4--4--4--4--4--0--0--4--4--4--4--4--4--0--0--|
B|--5--5--5--5--5--5--2--2--5--5--5--5--5--5--2--2--|
G|--------------------------------------------------|
D|--------------------------------------------------|
A|--------------------------------------------------|
E|--------------------------------------------------|

e|--2--2--2--2--2--2--4--4-|--0~~~--|
B|--4--4--4--4--4--4--5--5-|--2~~~--|
G|-------------------------|--2~~~--|
D|-------------------------|--x~~~--|
A|-------------------------|--0~~~--|
E|-------------------------|--------|


************************************


Guitar 2 / Bass 1 - Jake / Ian (right)

Intro (0:00)

    "I reckon you grew up in a town that said reckon all the time..."

          x14
e|------7---|-----|
B|:--5-----:|--5--|
G|----------|-----|
D|----------|-----|
A|:--------:|-----|
E|----------|-----|


Verse (0:18)

    "Well here goes nothing..."

    Something else is being played here too, it might be a
    6 on the G string. Towards the end, is goes from
    picking to strumming of the chord.

          x32
e|------7---|
B|:--5-----:|
G|----------|
D|----------|
A|:--------:|
E|----------|


Pre-Chorus (0:38)
                                     x3
e|--5--4--2--0------------------4--0--|--5--4--2--0--7--|
B|:---------------2--0---4--5--------:|-----------------|
G|------------------------------------|-----------------|
D|------------------------------------|-----------------|
A|:----------------------------------:|-----------------|
E|------------------------------------|-----------------|


Chorus (0:59) (Bass) (strum each noted chord twice)

    "On the corner of Canal and Broadway..."

 |  E                 B      C#m               B     | 
G|-------------------------|-------------------------|
D|:------------------------|-------------------------|
A|:-7--7--7--7--7--7--2--2-|-4--4--4--4--4--4--2--2--|
E|-------------------------|-------------------------|

                                                    x2
 |  D#                E      A                       |
G|-------------------------|-------------------------|
D|-------------------------|------------------------:|
A|--6--6--6--6--6--6--7--7-|-0--0--0--0--0--0--0--0-:|
E|-------------------------|-------------------------|


Post-Chorus (1:18) (Bass)

G|----------------------------------------------------|
D|----------------------------------------------------|
A|----------------------2--2--2--0--0-0--0--0--0--0---|
E|--0--0-0--0--0--0--0--------------------------------|

                                x2
G|-------------------------------|
D|:-----------------------------:|
A|:-7--7--7---------------------:|
E|-----------0--0-0--0--0--0--0--|


Verse 2 (1:28) (Bass) (strum each chord noted twice)

    "If you get stuck I'm just gonna go on without you..."

G|----------------------------------------------|
D|----------------------------------------------|
A|--------------2-2-0-0-0-0-0-0-7-7-------------|
E|--0-0-0-0-0-0---------------------0-0-0-0-0-0-|

G|------------------------|
D|------------------------|
A|--7-7-------------------|
E|-------0-0-0-0-0-0-0-0--|

Chorus (1:38)

    "On the corner of Canal and Broadway..."
    Repeat Chorus

Outro (1:56) (Bass)

    "And I reckon you grew up in a town..."

G|-------------------------|-------------------------|
D|-------------------------|-------------------------|
A|--7--7--7--7--7--7--2--2-|-4--4--4--4--4--4--2--2--|
E|-------------------------|-------------------------|

G|-------------------------|-------------------------|
D|-------------------------|-------------------------|
A|--6--6--6--6--6--6--6--6-|-0-----------------------|
E|-------------------------|-------------------------|


************************************

 /   slide up
 \   slide down
 h   hammer-on
 p   pull-off
 ~   vibrato
 +   harmonic
 x   Mute note
 b   Bend
 pb  Pre-bend
 br  Bend release
 pbr Pre-bend release
 brb Bend release bend

************************************

            
            
Suggest correction
Creating personal tab
Creating personal tab
You can edit any tab online and save it as your Personal.

You can edit, replace or remove any tab part or add personal notes – all changes will be seen only by you.

Personal tabs can be accessed anytime from any device, even offline.
Learn more »
Give kudos to tab author, rate the tab!
1 2 3 4 5
comments
print report bad tab
guest
You may want to rate the tab now too:
select rating
Wanna post a correction for this tab? Suggest correction