Oops, an error
Loading. Please wait.

See Ya Sucker tab

version 3
version 3

Whole song

2,083 views 18 this week
3 commentsread comments
1 2 3 4 5
x 4
add to favorites
×
Save as Personal and add changes to this tab that will be seen only by you. Learn more ›
×
You can save this tab as Personal to edit and correct it or add notes. All changes will be seen only by you. Learn more »
launch autoscroll
font size
0
reset
how to read this tab
guitar tuner
edit
Autoscroll
slow
fast
+/-
esc
set tempo
stop
See Ya Sucker - Modern Baseball

If you’ve heard the song you’ll know when and how to play each part.  Enjoy.


Guitar 1 Verse
eb |-----------------------------------------------
Bb |-----------------------------------------------
Gb |-----------------------------------------------
Db |-----------------------------------------------
Ab |--------------------------------------6--6--6--
Eb |--------------------------------------7--7--7--

eb |-----------------------------------------------
Bb |-----------------------------------------------
Gb |-----------------------------------------------
Db |-----------------------------------------------
Ab |--7-----7--7-----7-----7-----7-----7--7--7--7--
Eb |--9-----9--9-----9-----9-----9-----9--4--4--4--

eb |-----------------------------------------------
Bb |-----------------------------------------------
Gb |-----------------------------------------------
Db |-----------------------------------------------
Ab |--7-----7--7-----7-----7-----7-----7--9--9--9--
Eb |--5-----5--5-----5-----5-----5-----5--7--7--7--

eb |-----------------------------------------------
Bb |-----------------------------------------------
Gb |-----------------------------------------------
Db |-----------------------------------------------
Ab |--2-----2--2-----2-----2-----2-----2--2--2--2--
Eb |--0-----0--0-----0-----0-----0-----0--0--0--0--

eb |-----------------------------------------------
Bb |-----------------------------------------------
Gb |-----------------------------------------------
Db |-----------------------------------------------
Ab |--9-----9--9-----9-----9-----9-----6--6--6--6--
Eb |--7-----7--7-----7-----7-----7-----7--7--7--7--

Guitar 2 Verse
eb |--------------------------------------------------
Bb |-----7-----7-----7-----7-----7-----7-----7-----7--
Gb |--9-----9-----9-----9-----9-----9-----9-----9-----
Db |--------------------------------------------------
Ab |--------------------------------------------------
Eb |--------------------------------------------------


Guitar 1 Pre-Chorus
eb |------------------------------------------------------
Bb |------------------------------------------------------
Gb |--4--4---4-4-4-4--4---4-4-4-6--6---6-6-6-6--6---6-6-6-
Db |--6--6---6-6-6-6--6---6-6-6-7--7---7-7-7-7--7---7-7-7-
Ab |--7--7---7-7-7-7--7---7-7-7-7--7---7-7-7-7--7---7-7-7-
Eb |--4--4---4-4-4-4--4---4-4-4-5--5---5-5-5-5--5---5-5-5-

Guitar 2 Pre-Chorus
eb |--------------------------------------------------
Bb |--10-9----------------------------------9---------
Gb |--------11-9--------------------8--9-------9------
Db |--------------------11-9--------------------------
Ab |--------------------------------------------------
Eb |--------------------------------------------------

eb |--------------------------------------------------
Bb |--10-9--------12----------------------------------
Gb |--------11-9--------------------------------------
Db |--------------------------------------------------
Ab |--------------------------------------------------
Eb |--------------------------------------------------


Guitar 1 Chorus
eb |--------------------------------------------------
Bb |--9--9--9--9--9--9--9--9--9--9--9--9--9--9--9--9--
Gb |--9--9--9--9--9--9--9--9--9--9--9--9--9--9--9--9--
Db |--x--x--x--x--x--x--x--x--x--x--x--x--x--x--x--x--
Ab |--7--7--7--7--7--7--7--7--7--7--7--7--7--7--7--7--
Eb |--------------------------------------------------

eb |--------------------------------------------------
Bb |--7--7--7--7--7--7--9--9--------------------------
Gb |--8--8--8--8--8--8--9--9--6--6--6--6--6--6--6--6--
Db |--x--x--x--x--x--x--x--x--7--7--7--7--7--7--7--7--
Ab |--6--6--6--6--6--6--7--7--x--x--x--x--x--x--x--x--
Eb |--------------------------5--5--5--5--5--5--5--5--

Guitar 2 Chorus
eb |--------------------------------------------------
Bb |--------------------------------------------------
Gb |--------------------------------------------------
Db |--9--9--9--9--9--9--------------------------------
Ab |--7--7--7--7--7--7--9--9--11-11-11-11-11-11-9--9--
Eb |--------------------7--7--9--9--9--9--9--9--7--7--

eb |--------------------------------------------------
Bb |--------------------------------------------------
Gb |--------------------------------------------------
Db |--9--9--9--9--9--9--9--9--------------------------
Ab |--6--6--6--6--6--6--7--7--7--7--7--7--7--7--7--7--
Eb |--------------------------5--5--5--5--5--5--5--5--


Post-Chorus
eb |-----------------------------------------------
Bb |-----------------------------------------------
Gb |--------------------------------------8--8--8--
Db |--9-----9--9-----9-----9-----9-----9--9--9--9--
Ab |--7-----7--7-----7-----7-----7-----7--x--x--x--
Eb |--0-----0--0-----0-----0-----0-----0--7--7--7--

eb |-----------------------------------------------
Bb |--------------------------------------9--9--9--
Gb |--6-----6--6-----6-----6-----6-----6--9--9--9--
Db |--7-----7--7-----7-----7-----7-----7--x--x--x--
Ab |--x-----x--x-----x-----x-----x-----x--7--7--7--
Eb |--5-----5--5-----5-----5-----5-----5-----------

eb |-----------------------------------------------
Bb |--------------------------------------9--9--9--
Gb |--9-----9--9-----9-----9-----9-----9--9--9--9--
Db |--9-----9--9-----9-----9-----9-----9--x--x--x--
Ab |--7-----7--7-----7-----7-----7-----7--7--7--7--
Eb |--0-----0--0-----0-----0-----0-----0-----------

eb |----------------------------------------*12----
Bb |----------------------------------------*12----
Gb |--9-----9--9-----9-----9-----9----------*12----
Db |--9-----9--9-----9-----9-----9----------*12----
Ab |--7-----7--7-----7-----7-----7-----------------
Eb |--0-----0--0-----0-----0-----0-----------------


Verse
eb |--------------------------------------------------
Bb |--------------------------------------------9--9--
Gb |--------------------8--8--6--6--6--6--6--6--9--9--
Db |--9--9--9--9--9--9--9--9--7--7--7--7--7--7--x--x--
Ab |--7--7--7--7--7--7--x--x--x--x--x--x--x--x--7--7--
Eb |--0--0--0--0--0--0--7--7--5--5--5--5--5--5--------

eb |--------------------------------------------------
Bb |--------------------9--9--------------------------
Gb |--9--9--9--9--9--9--9--9--9--9--9--9--9--9--9--9--
Db |--9--9--9--9--9--9--x--x--9--9--9--9--9--9--9--9--
Ab |--7--7--7--7--7--7--7--7--7--7--7--7--7--7--7--7--
Eb |--------------------------------------------------


Chorus Guitar 1
eb |--------------------------------------------------
Bb |--9--9--9--9--9--9--9--9--9--9--9--9--9--9--9--9--
Gb |--9--9--9--9--9--9--9--9--9--9--9--9--9--9--9--9--
Db |--x--x--x--x--x--x--x--x--x--x--x--x--x--x--x--x--
Ab |--7--7--7--7--7--7--7--7--7--7--7--7--7--7--7--7--
Eb |--------------------------------------------------

eb |--------------------------------------------------
Bb |--7--7--7--7--7--7--9--9--------------------------
Gb |--8--8--8--8--8--8--9--9--6--6--6--6--6--6--6--6--
Db |--x--x--x--x--x--x--x--x--7--7--7--7--7--7--7--7--
Ab |--6--6--6--6--6--6--7--7--x--x--x--x--x--x--x--x--
Eb |--------------------------5--5--5--5--5--5--5--5--

Chorus Guitar 2
eb |--------------------------------------------------
Bb |--------------------------------------------------
Gb |--------------------------------------------------
Db |--9--9--9--9--9--9--------------------------------
Ab |--7--7--7--7--7--7--9--9--11-11-11-11-11-11-9--9--
Eb |--------------------7--7--9--9--9--9--9--9--7--7--

eb |--------------------------------------------------
Bb |--------------------------------------------------
Gb |--------------------------------------------------
Db |--9--9--9--9--9--9--9--9--------------------------
Ab |--6--6--6--6--6--6--7--7--7--7--7--7--7--7--7--7--
Eb |--------------------------5--5--5--5--5--5--5--5--

At the end, play the chords of the chorus to the rhythm of the verse at the beginning and end on an A Major.

            
            
Suggest correction
Creating personal tab
Creating personal tab
You can edit any tab online and save it as your Personal.

You can edit, replace or remove any tab part or add personal notes – all changes will be seen only by you.

Personal tabs can be accessed anytime from any device, even offline.
Learn more »
comments
print report bad tab
3 comments total.
0 reply
milleralex 10 Feb 22, 2016 12:26 PM

thanks, i needed this a lot

-2 reply
N04Hz_Ark 505 Mar 08, 2016 11:35 PM

Feel like this was stolen from me...

guest
You may want to rate the tab now too:
select rating
Wanna post a correction for this tab? Suggest correction