Oops, an error
Loading. Please wait.

See Ya Sucker tab

version 4
version 4

Whole song

16 views 12 this week
no commentswrite comment
1 2 3 4 5
3 more votes to show rating
add to favorites
×
Save as Personal and add changes to this tab that will be seen only by you. Learn more ›
×
You can save this tab as Personal to edit and correct it or add notes. All changes will be seen only by you. Learn more »
launch autoscroll
font size
0
reset
how to read this tab
guitar tuner
edit
Autoscroll
slow
fast
+/-
esc
set tempo
stop
About this tab version
Figured this out by ear and I think it sounds more accurate than the other tabs for this song. Was this info helpful? Yes No
Guitar 1 Verse
eb |-----------------------------------------------|
Bb |-----------------------------------------------|
Gb |-----------------------------------------------|
Db |--------------------------------------9--9--9--|
Ab |--------------------------------------6--6--6--|
Eb |--------------------------------------7--7--7--|

eb |-----------------------------------------------|
Bb |-----------------------------------------------|
Gb |-----------------------------------------------|
Db |--9-----9--9-----9-----9-----9-----9--6--6--6--|
Ab |--7-----7--7-----7-----7-----7-----7--7--7--7--|
Eb |--9-----9--9-----9-----9-----9-----9--4--4--4--|

eb |-----------------------------------------------|
Bb |-----------------------------------------------|
Gb |-----------------------------------------------|
Db |--7-----7--7-----7-----7-----7-----7--9--9--9--|
Ab |--7-----7--7-----7-----7-----7-----7--9--9--9--|
Eb |--5-----5--5-----5-----5-----5-----5--7--7--7--|

eb |-----------------------------------------------|
Bb |-----------------------------------------------|
Gb |-----------------------------------------------|
Db |--6-----6--6-----6-----6-----6-----6--6--6--6--|
Ab |--7-----7--7-----7-----7-----7-----7--7--7--7--|
Eb |--0-----0--0-----0-----0-----0-----0--0--0--0--|

eb |-----------------------------------------------|
Bb |-----------------------------------------------|
Gb |-----------------------------------------------|
Db |--9-----9--9-----9-----9-----9-----9--9--9--9--|
Ab |--9-----9--9-----9-----9-----9-----6--6--6--6--|
Eb |--7-----7--7-----7-----7-----7-----7--7--7--7--|

Guitar 2 Verse
eb |--------------------------------------------------|
Bb |-----7-----7-----7-----7-----7-----7-----7-----7--|
Gb |--9-----9-----9-----9-----9-----9-----9-----9-----|
Db |--------------------------------------------------|
Ab |--------------------------------------------------|
Eb |--------------------------------------------------|


Guitar 1 Pre-Chorus
eb |------------------------------------------------------|
Bb |------------------------------------------------------|
Gb |------------------------------------------------------|
Db |--6--6---6-6-6-6--6---6-6-6-7--7---7-7-7-7--7---7-7-7-|
Ab |--7--7---7-7-7-7--7---7-7-7-7--7---7-7-7-7--7---7-7-7-|
Eb |--4--4---4-4-4-4--4---4-4-4-5--5---5-5-5-5--5---5-5-5-|

eb |-------------------------------------------------------|  x2
Bb |------------------------------------------------------ |
Gb |------------------------------------------------------ |
Db |--6--6---6-6-6-6--6---6-6-6-6--6---6-6-6-6--6---6-6-6- |
Ab |--7--7---7-7-7-7--7---7-7-7-7--7---7-7-7-7--7---7-7-7- |
Eb |--0--0---0-0-0-0--0---0-0-0-0--0---0-0-0-0--0---0-0-0- |


eb |--------------------------------|
Bb |--------------------------------|
Gb |--------------------------------|
Db |--9--9--9--9--9--9--9--9--9--9--|
Ab |--6--6--6--6--6--6--6--6--6--6--|
Eb |--7--7--7--7--7--7--7--7--7--7--|


Guitar 2 Pre-Chorus
eb |--------------------------------------------------|
Bb |--10-9----------------------------------9---------|
Gb |--------11-9--------------------8--9-------9------|
Db |--------------------11-9--------------------------|
Ab |--------------------------------------------------|
Eb |--------------------------------------------------|  x4

eb |--------------------------------------------------|
Bb |--10-9--------12----------------------------------|
Gb |--------11-9--------------------------------------|
Db |--------------------------------------------------|
Ab |--------------------------------------------------|
Eb |--------------------------------------------------|


Guitar 1 Chorus
eb |--------------------------------------------------------------------------------------|
Bb |--9--9--9--9--9--9--9--9--9--9--9--9--------------------------------------------------|
Gb |--9--9--9--9--9--9--9--9--9--9--9--9--8--8--6--6--6--6--6--6--6--6--6--6--6--6--8--8--|
Db |--x--x--x--x--x--x--x--x--x--x--x--x--9--9--7--7--7--7--7--7--7--7--7--7--7--7--9--9--|
Ab |--7--7--7--7--7--7--7--7--7--7--7--7--x--x--x--x--x--x--x--x--x--x--x--x--x--x--x--x--|
Eb |--------------------------------------7--7--5--5--5--5--5--5--5--5--5--5--5--5--7--7--|

eb |--------------------------------------------------------------------------------|
Bb |--7--7--7--7--7--7--7--7--7--7--7--7--9--9--------------------------------------|
Gb |--8--8--8--8--8--8--8--8--8--8--8--8--9--9--6--6--6--6--6--6--6--6--6--6--6--6--|
Db |--x--x--x--x--x--x--x--x--x--x--x--x--x--x--7--7--7--7--7--7--7--7--7--7--7--7--|
Ab |--6--6--6--6--6--6--6--6--6--6--6--6--7--7--x--x--x--x--x--x--x--x--x--x--x--x--|
Eb |--------------------------------------------5--5--5--5--5--5--5--5--5--5--5--5--|    
     x2

Guitar 2 Chorus
eb |--------------------------------------------------------------------------------------|
Bb |--------------------------------------------------------------------------------------|
Gb |--------------------------------------------------------------------------------------|
Db |--9--9--9--9--9--9--9--9--9--9--9--9--------------------------------------------------|
Ab |--7--7--7--7--7--7--7--7--7--7--7--7--9--9--11-11-11-11-11-11-11-11-11-11-11-11-9--9--|
Eb |--------------------------------------7--7--9--9--9--9--9--9--9--9--9--9--9--9--7--7--|

eb |--------------------------------------------------------------------------------|
Bb |--------------------------------------------------------------------------------|
Gb |--------------------------------------------------------------------------------|
Db |--9--9--9--9--9--9--9--9--9--9--9--9--9--9--------------------------------------|
Ab |--6--6--6--6--6--6--6--6--6--6--6--6--7--7--7--7--7--7--7--7--7--7--7--7--7--7--|
Eb |--------------------------------------------5--5--5--5--5--5--5--5--5--5--5--5--|    
     x2


Post-Chorus
eb |-----------------------------------------------|
Bb |-----------------------------------------------|
Gb |--------------------------------------8--8--8--|
Db |--9-----9--9-----9-----9-----9-----9--9--9--9--|
Ab |--7-----7--7-----7-----7-----7-----7--x--x--x--|
Eb |--0-----0--0-----0-----0-----0-----0--7--7--7--|

eb |-----------------------------------------------|
Bb |--------------------------------------9--9--9--|
Gb |--6-----6--6-----6-----6-----6-----6--9--9--9--|
Db |--7-----7--7-----7-----7-----7-----7--x--x--x--|
Ab |--x-----x--x-----x-----x-----x-----x--7--7--7--|
Eb |--5-----5--5-----5-----5-----5-----5-----------|

eb |-----------------------------------------------|
Bb |--------------------------------------9--9--9--|
Gb |--9-----9--9-----9-----9-----9-----9--9--9--9--|
Db |--9-----9--9-----9-----9-----9-----9--x--x--x--|
Ab |--7-----7--7-----7-----7-----7-----7--7--7--7--|
Eb |--0-----0--0-----0-----0-----0-----0-----------|

eb |----------------------------------------*12----|
Bb |----------------------------------------*12----|
Gb |--9-----9--9-----9-----9-----9----------*12----|
Db |--9-----9--9-----9-----9-----9----------*12----|
Ab |--7-----7--7-----7-----7-----7-----------------|
Eb |--0-----0--0-----0-----0-----0-----------------|


Verse
eb |--------------------------------------------------------------------------------------|
Bb |--------------------------------------------------------------------------------9--9--|
Gb |--------------------------------------8--8--6--6--6--6--6--6--6--6--6--6--6--6--9--9--|
Db |--9--9--9--9--9--9--9--9--9--9--9--9--9--9--7--7--7--7--7--7--7--7--7--7--7--7--x--x--|
Ab |--7--7--7--7--7--7--7--7--7--7--7--7--x--x--x--x--x--x--x--x--x--x--x--x--x--x--7--7--|
Eb |--0--0--0--0--0--0--0--0--0--0--0--0--7--7--5--5--5--5--5--5--5--5--5--5--5--5--------|

eb |--------------------------------------------------------------------------------------|
Bb |--------------------------------------9--9--------------------------------------------|
Gb |--9--9--9--9--9--9--9--9--9--9--9--9--9--9--9--9--9--9--9--9--9--9--9--9--9--9--9--9--|
Db |--9--9--9--9--9--9--9--9--9--9--9--9--x--x--9--9--9--9--9--9--9--9--9--9--9--9--9--9--|
Ab |--7--7--7--7--7--7--7--7--7--7--7--7--7--7--7--7--7--7--7--7--7--7--7--7--7--7--7--7--|
Eb |--------------------------------------------------------------------------------------|


Chorus Guitar 1
eb |--------------------------------------------------------------------------------------|
Bb |--9--9--9--9--9--9--9--9--9--9--9--9--------------------------------------------------|
Gb |--9--9--9--9--9--9--9--9--9--9--9--9--8--8--6--6--6--6--6--6--6--6--6--6--6--6--8--8--|
Db |--x--x--x--x--x--x--x--x--x--x--x--x--9--9--7--7--7--7--7--7--7--7--7--7--7--7--9--9--|
Ab |--7--7--7--7--7--7--7--7--7--7--7--7--x--x--x--x--x--x--x--x--x--x--x--x--x--x--x--x--|
Eb |--------------------------------------7--7--5--5--5--5--5--5--5--5--5--5--5--5--7--7--|

eb |--------------------------------------------------------------------------------|
Bb |--7--7--7--7--7--7--7--7--7--7--7--7--9--9--------------------------------------|
Gb |--8--8--8--8--8--8--8--8--8--8--8--8--9--9--6--6--6--6--6--6--6--6--6--6--6--6--|
Db |--x--x--x--x--x--x--x--x--x--x--x--x--x--x--7--7--7--7--7--7--7--7--7--7--7--7--|
Ab |--6--6--6--6--6--6--6--6--6--6--6--6--7--7--x--x--x--x--x--x--x--x--x--x--x--x--|
Eb |--------------------------------------------5--5--5--5--5--5--5--5--5--5--5--5--|    
     x2

Guitar 2 Chorus
eb |--------------------------------------------------------------------------------------|
Bb |--------------------------------------------------------------------------------------|
Gb |--------------------------------------------------------------------------------------|
Db |--9--9--9--9--9--9--9--9--9--9--9--9--------------------------------------------------|
Ab |--7--7--7--7--7--7--7--7--7--7--7--7--9--9--11-11-11-11-11-11-11-11-11-11-11-11-9--9--|
Eb |--------------------------------------7--7--9--9--9--9--9--9--9--9--9--9--9--9--7--7--|

eb |--------------------------------------------------------------------------------|
Bb |--------------------------------------------------------------------------------|
Gb |--------------------------------------------------------------------------------|
Db |--9--9--9--9--9--9--9--9--9--9--9--9--9--9--------------------------------------|
Ab |--6--6--6--6--6--6--6--6--6--6--6--6--7--7--7--7--7--7--7--7--7--7--7--7--7--7--|
Eb |--------------------------------------------5--5--5--5--5--5--5--5--5--5--5--5--|    
     x2


Outro
eb |--------------------------------------------------------------------------------------|
Bb |--9-----9--9-----9-----9-----9-----9--------------------------------------------------|
Gb |--9-----9--9-----9-----9-----9-----9--8--8--6-----6--6-----6-----6-----6-----6--8--8--|
Db |--x-----x--x-----x-----x-----x-----x--9--9--7-----7--7-----7-----7-----7-----7--9--9--|
Ab |--7-----7--7-----7-----7-----7-----7--x--x--x-----x--x-----x-----x-----x-----x--x--x--|
Eb |--------------------------------------7--7--5-----5--5-----5-----5-----5-----5--7--7--|

eb |-----------------------------------------------|
Bb |--7-----7--7-----7-----7-----7-----7--9--9-----|
Gb |--8-----8--8-----8-----8-----8-----8--9--9--6--|
Db |--x-----x--x-----x-----x-----x-----x--x--x--7--|
Ab |--6-----6--6-----6-----6-----6-----6--7--7--x--|
Eb |--------------------------------------------5--|
Suggest correction
Creating personal tab
Creating personal tab
You can edit any tab online and save it as your Personal.

You can edit, replace or remove any tab part or add personal notes – all changes will be seen only by you.

Personal tabs can be accessed anytime from any device, even offline.
Learn more »
Give kudos to tab author, rate the tab!
1 2 3 4 5
comments
print report bad tab
guest
You may want to rate the tab now too:
select rating
Wanna post a correction for this tab? Suggest correction